  0
SECTION
  2
HEADER
  9
$ACADVER
  1
AC1018
  9
$ACADMAINTVER
 70
     0
  9
$DWGCODEPAGE
  3
ASCII
  9
$INSBASE
 10
0.0
 20
0.0
 30
0.0
  9
$EXTMIN
 10
1.000000000000000E+20
 20
1.000000000000000E+20
 30
1.000000000000000E+20
  9
$EXTMAX
 10
-1.000000000000000E+20
 20
-1.000000000000000E+20
 30
-1.000000000000000E+20
  9
$LIMMIN
 10
0.0
 20
0.0
  9
$LIMMAX
 10
12.0
 20
9.0
  9
$ORTHOMODE
 70
     0
  9
$REGENMODE
 70
     1
  9
$FILLMODE
 70
     1
  9
$QTEXTMODE
 70
     0
  9
$MIRRTEXT
 70
     1
  9
$LTSCALE
 40
1.0
  9
$ATTMODE
 70
     1
  9
$TEXTSIZE
 40
0.2
  9
$TRACEWID
 40
0.05
  9
$TEXTSTYLE
  7
Standard
  9
$CLAYER
  8
0
  9
$CELTYPE
  6
ByLayer
  9
$CECOLOR
 62
   256
  9
$CELTSCALE
 40
1.0
  9
$DISPSILH
 70
     0
  9
$DIMSCALE
 40
1.0
  9
$DIMASZ
 40
0.18
  9
$DIMEXO
 40
0.0625
  9
$DIMDLI
 40
0.38
  9
$DIMRND
 40
0.0
  9
$DIMDLE
 40
0.0
  9
$DIMEXE
 40
0.18
  9
$DIMTP
 40
0.0
  9
$DIMTM
 40
0.0
  9
$DIMTXT
 40
0.18
  9
$DIMCEN
 40
0.09
  9
$DIMTSZ
 40
0.0
  9
$DIMTOL
 70
     0
  9
$DIMLIM
 70
     0
  9
$DIMTIH
 70
     1
  9
$DIMTOH
 70
     1
  9
$DIMSE1
 70
     0
  9
$DIMSE2
 70
     0
  9
$DIMTAD
 70
     0
  9
$DIMZIN
 70
     0
  9
$DIMBLK
  1

  9
$DIMASO
 70
     1
  9
$DIMSHO
 70
     1
  9
$DIMPOST
  1

  9
$DIMAPOST
  1

  9
$DIMALT
 70
     0
  9
$DIMALTD
 70
     2
  9
$DIMALTF
 40
25.4
  9
$DIMLFAC
 40
1.0
  9
$DIMTOFL
 70
     0
  9
$DIMTVP
 40
0.0
  9
$DIMTIX
 70
     0
  9
$DIMSOXD
 70
     0
  9
$DIMSAH
 70
     0
  9
$DIMBLK1
  1

  9
$DIMBLK2
  1

  9
$DIMSTYLE
  2
Standard
  9
$DIMCLRD
 70
     0
  9
$DIMCLRE
 70
     0
  9
$DIMCLRT
 70
     0
  9
$DIMTFAC
 40
1.0
  9
$DIMGAP
 40
0.09
  9
$DIMJUST
 70
     0
  9
$DIMSD1
 70
     0
  9
$DIMSD2
 70
     0
  9
$DIMTOLJ
 70
     1
  9
$DIMTZIN
 70
     0
  9
$DIMALTZ
 70
     0
  9
$DIMALTTZ
 70
     0
  9
$DIMUPT
 70
     0
  9
$DIMDEC
 70
     4
  9
$DIMTDEC
 70
     4
  9
$DIMALTU
 70
     2
  9
$DIMALTTD
 70
     2
  9
$DIMTXSTY
  7
Standard
  9
$DIMAUNIT
 70
     0
  9
$DIMADEC
 70
     0
  9
$DIMALTRND
 40
0.0
  9
$DIMAZIN
 70
     0
  9
$DIMDSEP
 70
    46
  9
$DIMATFIT
 70
     3
  9
$DIMFRAC
 70
     0
  9
$DIMLDRBLK
  1

  9
$DIMLUNIT
 70
     2
  9
$DIMLWD
 70
    -2
  9
$DIMLWE
 70
    -2
  9
$DIMTMOVE
 70
     0
  9
$LUNITS
 70
     2
  9
$LUPREC
 70
     4
  9
$SKETCHINC
 40
0.1
  9
$FILLETRAD
 40
0.5
  9
$AUNITS
 70
     0
  9
$AUPREC
 70
     0
  9
$MENU
  1
.
  9
$ELEVATION
 40
0.0
  9
$PELEVATION
 40
0.0
  9
$THICKNESS
 40
0.0
  9
$LIMCHECK
 70
     0
  9
$CHAMFERA
 40
0.5
  9
$CHAMFERB
 40
0.5
  9
$CHAMFERC
 40
1.0
  9
$CHAMFERD
 40
0.0
  9
$SKPOLY
 70
     0
  9
$TDCREATE
 40
2456738.302392488
  9
$TDUCREATE
 40
2456737.885725822
  9
$TDUPDATE
 40
2456738.3023925
  9
$TDUUPDATE
 40
2456737.885725833
  9
$TDINDWG
 40
0.0000000116
  9
$TDUSRTIMER
 40
0.0000000116
  9
$USRTIMER
 70
     1
  9
$ANGBASE
 50
0.0
  9
$ANGDIR
 70
     0
  9
$PDMODE
 70
     0
  9
$PDSIZE
 40
0.0
  9
$PLINEWID
 40
0.0
  9
$SPLFRAME
 70
     0
  9
$SPLINETYPE
 70
     6
  9
$SPLINESEGS
 70
     8
  9
$HANDSEED
  5
A3
  9
$SURFTAB1
 70
     6
  9
$SURFTAB2
 70
     6
  9
$SURFTYPE
 70
     6
  9
$SURFU
 70
     6
  9
$SURFV
 70
     6
  9
$UCSBASE
  2

  9
$UCSNAME
  2

  9
$UCSORG
 10
0.0
 20
0.0
 30
0.0
  9
$UCSXDIR
 10
1.0
 20
0.0
 30
0.0
  9
$UCSYDIR
 10
0.0
 20
1.0
 30
0.0
  9
$UCSORTHOREF
  2

  9
$UCSORTHOVIEW
 70
     0
  9
$UCSORGTOP
 10
0.0
 20
0.0
 30
0.0
  9
$UCSORGBOTTOM
 10
0.0
 20
0.0
 30
0.0
  9
$UCSORGLEFT
 10
0.0
 20
0.0
 30
0.0
  9
$UCSORGRIGHT
 10
0.0
 20
0.0
 30
0.0
  9
$UCSORGFRONT
 10
0.0
 20
0.0
 30
0.0
  9
$UCSORGBACK
 10
0.0
 20
0.0
 30
0.0
  9
$PUCSBASE
  2

  9
$PUCSNAME
  2

  9
$PUCSORG
 10
0.0
 20
0.0
 30
0.0
  9
$PUCSXDIR
 10
1.0
 20
0.0
 30
0.0
  9
$PUCSYDIR
 10
0.0
 20
1.0
 30
0.0
  9
$PUCSORTHOREF
  2

  9
$PUCSORTHOVIEW
 70
     0
  9
$PUCSORGTOP
 10
0.0
 20
0.0
 30
0.0
  9
$PUCSORGBOTTOM
 10
0.0
 20
0.0
 30
0.0
  9
$PUCSORGLEFT
 10
0.0
 20
0.0
 30
0.0
  9
$PUCSORGRIGHT
 10
0.0
 20
0.0
 30
0.0
  9
$PUCSORGFRONT
 10
0.0
 20
0.0
 30
0.0
  9
$PUCSORGBACK
 10
0.0
 20
0.0
 30
0.0
  9
$USERI1
 70
     0
  9
$USERI2
 70
     0
  9
$USERI3
 70
     0
  9
$USERI4
 70
     0
  9
$USERI5
 70
     0
  9
$USERR1
 40
0.0
  9
$USERR2
 40
0.0
  9
$USERR3
 40
0.0
  9
$USERR4
 40
0.0
  9
$USERR5
 40
0.0
  9
$WORLDVIEW
 70
     1
  9
$SHADEDGE
 70
     3
  9
$SHADEDIF
 70
    70
  9
$TILEMODE
 70
     1
  9
$MAXACTVP
 70
    64
  9
$PINSBASE
 10
0.0
 20
0.0
 30
0.0
  9
$PLIMCHECK
 70
     0
  9
$PEXTMIN
 10
1.000000000000000E+20
 20
1.000000000000000E+20
 30
1.000000000000000E+20
  9
$PEXTMAX
 10
-1.000000000000000E+20
 20
-1.000000000000000E+20
 30
-1.000000000000000E+20
  9
$PLIMMIN
 10
0.0
 20
0.0
  9
$PLIMMAX
 10
12.0
 20
9.0
  9
$UNITMODE
 70
     0
  9
$VISRETAIN
 70
     1
  9
$PLINEGEN
 70
     0
  9
$PSLTSCALE
 70
     1
  9
$TREEDEPTH
 70
  3020
  9
$CMLSTYLE
  2
Standard
  9
$CMLJUST
 70
     0
  9
$CMLSCALE
 40
1.0
  9
$PROXYGRAPHICS
 70
     1
  9
$MEASUREMENT
 70
     0
  9
$CELWEIGHT
370
    -1
  9
$ENDCAPS
280
     0
  9
$JOINSTYLE
280
     0
  9
$LWDISPLAY
290
     1
  9
$INSUNITS
 70
     1
  9
$HYPERLINKBASE
  1

  9
$STYLESHEET
  1

  9
$XEDIT
290
     1
  9
$CEPSNTYPE
380
     0
  9
$PSTYLEMODE
290
     1
  9
$FINGERPRINTGUID
  2
{DFD4A21B-4AC0-46D6-A9E3-23FC5E49FF5E}
  9
$VERSIONGUID
  2
{FAEB1C32-E019-11D5-929B-00C0DF256EC4}
  9
$EXTNAMES
290
     1
  9
$PSVPSCALE
 40
0.0
  9
$OLESTARTUP
290
     0
  9
$SORTENTS
280
   127
  9
$INDEXCTL
280
     0
  9
$HIDETEXT
280
     1
  9
$XCLIPFRAME
290
     0
  9
$HALOGAP
280
     0
  9
$OBSCOLOR
 70
   257
  9
$OBSLTYPE
280
     0
  9
$INTERSECTIONDISPLAY
280
     0
  9
$INTERSECTIONCOLOR
 70
   257
  9
$DIMASSOC
280
     2
  9
$PROJECTNAME
  1

  0
ENDSEC
  0
SECTION
  2
CLASSES
  0
CLASS
  1
ACDBDICTIONARYWDFLT
  2
AcDbDictionaryWithDefault
  3
ObjectDBX Classes
 90
        0
 91
        3
280
     0
281
     0
  0
CLASS
  1
VISUALSTYLE
  2
AcDbVisualStyle
  3
ObjectDBX Classes
 90
     4095
 91
        3
280
     0
281
     0
  0
ENDSEC
  0
SECTION
  2
TABLES
  0
TABLE
  2
VPORT
  5
8
330
0
100
AcDbSymbolTable
 70
     1
  0
VPORT
  5
29
330
8
100
AcDbSymbolTableRecord
100
AcDbViewportTableRecord
  2
*Active
 70
     0
 10
0.0
 20
0.0
 11
1.0
 21
1.0
 12
0.0
 22
0.0
 13
0.0
 23
0.0
 14
0.5
 24
0.5
 15
0.5
 25
0.5
 16
0.0
 26
0.0
 36
1.0
 17
602.174493780312
 27
158.2069850253319
 37
0.0
 40
271.0105512749962
 41
4.367441142796387
 42
50.0
 43
0.0
 44
0.0
 50
0.0
 51
0.0
 71
     0
 72
   100
 73
     1
 74
     3
 75
     0
 76
     0
 77
     0
 78
     0
281
     0
 65
     1
110
0.0
120
0.0
130
0.0
111
1.0
121
0.0
131
0.0
112
0.0
122
1.0
132
0.0
 79
     0
146
0.0
  0
ENDTAB
  0
TABLE
  2
LTYPE
  5
5
330
0
100
AcDbSymbolTable
 70
     1
  0
LTYPE
  5
14
330
5
100
AcDbSymbolTableRecord
100
AcDbLinetypeTableRecord
  2
ByBlock
 70
     0
  3

 72
    65
 73
     0
 40
0.0
  0
LTYPE
  5
15
330
5
100
AcDbSymbolTableRecord
100
AcDbLinetypeTableRecord
  2
ByLayer
 70
     0
  3

 72
    65
 73
     0
 40
0.0
  0
LTYPE
  5
16
330
5
100
AcDbSymbolTableRecord
100
AcDbLinetypeTableRecord
  2
Continuous
 70
     0
  3
Solid line
 72
    65
 73
     0
 40
0.0
  0
ENDTAB
  0
TABLE
  2
LAYER
  5
2
330
0
100
AcDbSymbolTable
 70
     2
  0
LAYER
  5
10
330
2
100
AcDbSymbolTableRecord
100
AcDbLayerTableRecord
  2
0
 70
     0
 62
     7
  6
Continuous
370
    -3
390
F
  0
LAYER
  5
3B
330
2
100
AcDbSymbolTableRecord
100
AcDbLayerTableRecord
  2
GT Stripes
 70
     0
 62
     7
  6
Continuous
370
    -3
390
F
  0
ENDTAB
  0
TABLE
  2
STYLE
  5
3
330
0
100
AcDbSymbolTable
 70
     1
  0
STYLE
  5
11
330
3
100
AcDbSymbolTableRecord
100
AcDbTextStyleTableRecord
  2
Standard
 70
     0
 40
0.0
 41
1.0
 50
0.0
 71
     0
 42
0.2
  3
txt
  4

  0
ENDTAB
  0
TABLE
  2
VIEW
  5
6
330
0
100
AcDbSymbolTable
 70
     0
  0
ENDTAB
  0
TABLE
  2
UCS
  5
7
330
0
100
AcDbSymbolTable
 70
     0
  0
ENDTAB
  0
TABLE
  2
APPID
  5
9
330
0
100
AcDbSymbolTable
 70
     1
  0
APPID
  5
12
330
9
100
AcDbSymbolTableRecord
100
AcDbRegAppTableRecord
  2
ACAD
 70
     0
  0
ENDTAB
  0
TABLE
  2
DIMSTYLE
  5
A
330
0
100
AcDbSymbolTable
 70
     1
100
AcDbDimStyleTable
  0
DIMSTYLE
105
27
330
A
100
AcDbSymbolTableRecord
100
AcDbDimStyleTableRecord
  2
Standard
 70
     0
340
11
  0
ENDTAB
  0
TABLE
  2
BLOCK_RECORD
  5
1
330
0
100
AcDbSymbolTable
 70
    13
  0
BLOCK_RECORD
  5
1F
330
1
100
AcDbSymbolTableRecord
100
AcDbBlockTableRecord
  2
*Model_Space
340
22
  0
BLOCK_RECORD
  5
1B
330
1
100
AcDbSymbolTableRecord
100
AcDbBlockTableRecord
  2
*Paper_Space
340
1E
  0
BLOCK_RECORD
  5
23
330
1
100
AcDbSymbolTableRecord
100
AcDbBlockTableRecord
  2
*Paper_Space0
340
26
  0
BLOCK_RECORD
  5
3C
330
1
100
AcDbSymbolTableRecord
100
AcDbBlockTableRecord
  2
block 2
340
0
102
{BLKREFS
331
3D
102
}
  0
BLOCK_RECORD
  5
42
330
1
100
AcDbSymbolTableRecord
100
AcDbBlockTableRecord
  2
block 3
340
0
102
{BLKREFS
331
43
102
}
  0
BLOCK_RECORD
  5
46
330
1
100
AcDbSymbolTableRecord
100
AcDbBlockTableRecord
  2
block 4
340
0
102
{BLKREFS
331
47
102
}
  0
BLOCK_RECORD
  5
4D
330
1
100
AcDbSymbolTableRecord
100
AcDbBlockTableRecord
  2
block 5
340
0
102
{BLKREFS
331
4E
102
}
  0
BLOCK_RECORD
  5
59
330
1
100
AcDbSymbolTableRecord
100
AcDbBlockTableRecord
  2
block 6
340
0
102
{BLKREFS
331
5A
102
}
  0
BLOCK_RECORD
  5
5D
330
1
100
AcDbSymbolTableRecord
100
AcDbBlockTableRecord
  2
block 7
340
0
102
{BLKREFS
331
5E
102
}
  0
BLOCK_RECORD
  5
6B
330
1
100
AcDbSymbolTableRecord
100
AcDbBlockTableRecord
  2
block 8
340
0
102
{BLKREFS
331
6C
102
}
  0
BLOCK_RECORD
  5
6F
330
1
100
AcDbSymbolTableRecord
100
AcDbBlockTableRecord
  2
block 9
340
0
102
{BLKREFS
331
70
102
}
  0
BLOCK_RECORD
  5
77
330
1
100
AcDbSymbolTableRecord
100
AcDbBlockTableRecord
  2
block 10
340
0
102
{BLKREFS
331
78
102
}
  0
BLOCK_RECORD
  5
7B
330
1
100
AcDbSymbolTableRecord
100
AcDbBlockTableRecord
  2
block 11
340
0
102
{BLKREFS
331
7C
102
}
  0
BLOCK_RECORD
  5
81
330
1
100
AcDbSymbolTableRecord
100
AcDbBlockTableRecord
  2
block 12
340
0
102
{BLKREFS
331
82
102
}
  0
BLOCK_RECORD
  5
8E
330
1
100
AcDbSymbolTableRecord
100
AcDbBlockTableRecord
  2
block 13
340
0
102
{BLKREFS
331
8F
102
}
  0
ENDTAB
  0
ENDSEC
  0
SECTION
  2
BLOCKS
  0
BLOCK
  5
20
330
1F
100
AcDbEntity
  8
0
100
AcDbBlockBegin
  2
*Model_Space
 70
     0
 71
     0
 10
0.0
 20
0.0
 30
0.0
  3
*Model_Space
  1

  0
ENDBLK
  5
21
330
1F
100
AcDbEntity
  8
0
100
AcDbBlockEnd
  0
BLOCK
  5
1C
330
1B
100
AcDbEntity
 67
     1
  8
0
100
AcDbBlockBegin
  2
*Paper_Space
 70
     0
 71
     0
 10
0.0
 20
0.0
 30
0.0
  3
*Paper_Space
  1

  0
ENDBLK
  5
1D
330
1B
100
AcDbEntity
 67
     1
  8
0
100
AcDbBlockEnd
  0
BLOCK
  5
24
330
23
100
AcDbEntity
  8
0
100
AcDbBlockBegin
  2
*Paper_Space0
 70
     0
 71
     0
 10
0.0
 20
0.0
 30
0.0
  3
*Paper_Space0
  1

  0
ENDBLK
  5
25
330
23
100
AcDbEntity
  8
0
100
AcDbBlockEnd
  0
BLOCK
  5
3E
330
3C
100
AcDbEntity
  8
0
100
AcDbBlockBegin
  2
block 2
 70
     0
 71
     0
 10
0.0
 20
0.0
 30
0.0
  3
block 2
  1

  0
SPLINE
  5
40
330
3C
100
AcDbEntity
  8
GT Stripes
370
     0
100
AcDbSpline
210
0.0
220
0.0
230
1.0
 70
    11
 71
     3
 72
    29
 73
    25
 74
     0
 42
0.0000000001
 43
0.0000000001
 40
0.0
 40
0.0
 40
0.0
 40
0.0
 40
1.0
 40
1.0
 40
1.0
 40
2.0
 40
2.0
 40
2.0
 40
3.0
 40
3.0
 40
3.0
 40
4.0
 40
4.0
 40
4.0
 40
5.0
 40
5.0
 40
5.0
 40
6.0
 40
6.0
 40
6.0
 40
7.0
 40
7.0
 40
7.0
 40
8.0
 40
8.0
 40
8.0
 40
8.0
 10
1156.836610851247
 20
27.26415914673301
 30
0.0
 10
1156.836610851247
 20
27.26415914673301
 30
0.0
 10
1167.725531334837
 20
61.44159596436774
 30
0.0
 10
1167.725531334837
 20
61.44159596436774
 30
0.0
 10
1168.061083856462
 20
62.49407332942503
 30
0.0
 10
1167.437521162271
 20
63.34707953429634
 30
0.0
 10
1166.332678311293
 20
63.34707953429634
 30
0.0
 10
1166.332678311293
 20
63.34707953429634
 30
0.0
 10
24.96765698127574
 20
63.34707953429634
 30
0.0
 10
24.96765698127574
 20
63.34707953429634
 30
0.0
 10
23.86315864007323
 20
63.34707953429634
 30
0.0
 10
23.04667047143631
 20
62.45514372476006
 30
0.0
 10
23.14382222821083
 20
61.3547795008671
 30
0.0
 10
23.14382222821083
 20
61.3547795008671
 30
0.0
 10
26.15070355135979
 20
27.35097561023364
 30
0.0
 10
26.15070355135979
 20
27.35097561023364
 30
0.0
 10
26.24785530813431
 20
26.25061138634068
 30
0.0
 10
27.22212895408587
 20
25.3586755768044
 30
0.0
 10
28.32662729528839
 20
25.3586755768044
 30
0.0
 10
28.32662729528839
 20
25.3586755768044
 30
0.0
 10
1154.229360868022
 20
25.3586755768044
 30
0.0
 10
1154.229360868022
 20
25.3586755768044
 30
0.0
 10
1155.334203719
 20
25.3586755768044
 30
0.0
 10
1156.501402839397
 20
26.21168178167571
 30
0.0
 10
1156.836610851247
 20
27.26415914673301
 30
0.0
  0
HATCH
  5
41
330
3C
100
AcDbEntity
  8
GT Stripes
 62
   250
420
  2235935
100
AcDbHatch
 10
0.0
 20
0.0
 30
0.0
210
0.0
220
0.0
230
1.0
  2
SOLID
 70
     1
 71
     0
 91
        1
 92
        1
 93
        1
 72
     4
 94
        3
 73
     0
 74
     1
 95
       29
 96
       25
 40
0.0
 40
0.0
 40
0.0
 40
0.0
 40
1.0
 40
1.0
 40
1.0
 40
2.0
 40
2.0
 40
2.0
 40
3.0
 40
3.0
 40
3.0
 40
4.0
 40
4.0
 40
4.0
 40
5.0
 40
5.0
 40
5.0
 40
6.0
 40
6.0
 40
6.0
 40
7.0
 40
7.0
 40
7.0
 40
8.0
 40
8.0
 40
8.0
 40
8.0
 10
1156.836610851247
 20
27.26415914673301
 10
1156.836610851247
 20
27.26415914673301
 10
1167.725531334837
 20
61.44159596436774
 10
1167.725531334837
 20
61.44159596436774
 10
1168.061083856462
 20
62.49407332942503
 10
1167.437521162271
 20
63.34707953429634
 10
1166.332678311293
 20
63.34707953429634
 10
1166.332678311293
 20
63.34707953429634
 10
24.96765698127574
 20
63.34707953429634
 10
24.96765698127574
 20
63.34707953429634
 10
23.86315864007323
 20
63.34707953429634
 10
23.04667047143631
 20
62.45514372476006
 10
23.14382222821083
 20
61.3547795008671
 10
23.14382222821083
 20
61.3547795008671
 10
26.15070355135979
 20
27.35097561023364
 10
26.15070355135979
 20
27.35097561023364
 10
26.24785530813431
 20
26.25061138634068
 10
27.22212895408587
 20
25.3586755768044
 10
28.32662729528839
 20
25.3586755768044
 10
28.32662729528839
 20
25.3586755768044
 10
1154.229360868022
 20
25.3586755768044
 10
1154.229360868022
 20
25.3586755768044
 10
1155.334203719
 20
25.3586755768044
 10
1156.501402839397
 20
26.21168178167571
 10
1156.836610851247
 20
27.26415914673301
 97
        0
 75
     0
 76
     1
 98
        0
  0
INSERT
  5
43
330
3C
100
AcDbEntity
  8
GT Stripes
100
AcDbBlockReference
  2
block 3
 10
0.0
 20
0.0
 30
0.0
  0
INSERT
  5
5A
330
3C
100
AcDbEntity
  8
GT Stripes
100
AcDbBlockReference
  2
block 6
 10
0.0
 20
0.0
 30
0.0
  0
SPLINE
  5
65
330
3C
100
AcDbEntity
  8
GT Stripes
370
     0
100
AcDbSpline
210
0.0
220
0.0
230
1.0
 70
    11
 71
     3
 72
    29
 73
    25
 74
     0
 42
0.0000000001
 43
0.0000000001
 40
0.0
 40
0.0
 40
0.0
 40
0.0
 40
1.0
 40
1.0
 40
1.0
 40
2.0
 40
2.0
 40
2.0
 40
3.0
 40
3.0
 40
3.0
 40
4.0
 40
4.0
 40
4.0
 40
5.0
 40
5.0
 40
5.0
 40
6.0
 40
6.0
 40
6.0
 40
7.0
 40
7.0
 40
7.0
 40
8.0
 40
8.0
 40
8.0
 40
8.0
 10
41.54374484370841
 20
95.35858339150056
 30
0.0
 10
41.54374484370841
 20
95.35858339150056
 30
0.0
 10
361.2753440352894
 20
95.35858339150056
 30
0.0
 10
361.2753440352894
 20
95.35858339150056
 30
0.0
 10
362.3798423764919
 20
95.35858339150056
 30
0.0
 10
363.1956415255772
 20
96.25051920103684
 30
0.0
 10
363.0974562394753
 20
97.350538915154
 30
0.0
 10
363.0974562394753
 20
97.350538915154
 30
0.0
 10
360.0623251147111
 20
131.355031825339
 30
0.0
 10
360.0623251147111
 20
131.355031825339
 30
0.0
 10
359.9641398286092
 20
132.4550515394562
 30
0.0
 10
358.989177163106
 20
133.3469873489925
 30
0.0
 10
357.8846788219035
 20
133.3469873489925
 30
0.0
 10
357.8846788219035
 20
133.3469873489925
 30
0.0
 10
34.01827330121689
 20
133.3469873489925
 30
0.0
 10
34.01827330121689
 20
133.3469873489925
 30
0.0
 10
32.91377496001438
 20
133.3469873489925
 30
0.0
 10
32.19237148949721
 20
132.4684874207123
 30
0.0
 10
32.40700107981822
 20
131.3850041758333
 30
0.0
 10
32.40700107981822
 20
131.3850041758333
 30
0.0
 10
39.15525856811357
 20
97.32056656465974
 30
0.0
 10
39.15525856811357
 20
97.32056656465974
 30
0.0
 10
39.36988815843458
 20
96.23708331978078
 30
0.0
 10
40.43924650250589
 20
95.35858339150056
 30
0.0
 10
41.54374484370841
 20
95.35858339150056
 30
0.0
  0
HATCH
  5
66
330
3C
100
AcDbEntity
  8
GT Stripes
 62
   250
420
  2235935
100
AcDbHatch
 10
0.0
 20
0.0
 30
0.0
210
0.0
220
0.0
230
1.0
  2
SOLID
 70
     1
 71
     0
 91
        1
 92
        1
 93
        1
 72
     4
 94
        3
 73
     0
 74
     1
 95
       29
 96
       25
 40
0.0
 40
0.0
 40
0.0
 40
0.0
 40
1.0
 40
1.0
 40
1.0
 40
2.0
 40
2.0
 40
2.0
 40
3.0
 40
3.0
 40
3.0
 40
4.0
 40
4.0
 40
4.0
 40
5.0
 40
5.0
 40
5.0
 40
6.0
 40
6.0
 40
6.0
 40
7.0
 40
7.0
 40
7.0
 40
8.0
 40
8.0
 40
8.0
 40
8.0
 10
41.54374484370841
 20
95.35858339150056
 10
41.54374484370841
 20
95.35858339150056
 10
361.2753440352894
 20
95.35858339150056
 10
361.2753440352894
 20
95.35858339150056
 10
362.3798423764919
 20
95.35858339150056
 10
363.1956415255772
 20
96.25051920103684
 10
363.0974562394753
 20
97.350538915154
 10
363.0974562394753
 20
97.350538915154
 10
360.0623251147111
 20
131.355031825339
 10
360.0623251147111
 20
131.355031825339
 10
359.9641398286092
 20
132.4550515394562
 10
358.989177163106
 20
133.3469873489925
 10
357.8846788219035
 20
133.3469873489925
 10
357.8846788219035
 20
133.3469873489925
 10
34.01827330121689
 20
133.3469873489925
 10
34.01827330121689
 20
133.3469873489925
 10
32.91377496001438
 20
133.3469873489925
 10
32.19237148949721
 20
132.4684874207123
 10
32.40700107981822
 20
131.3850041758333
 10
32.40700107981822
 20
131.3850041758333
 10
39.15525856811357
 20
97.32056656465974
 10
39.15525856811357
 20
97.32056656465974
 10
39.36988815843458
 20
96.23708331978078
 10
40.43924650250589
 20
95.35858339150056
 10
41.54374484370841
 20
95.35858339150056
 97
        0
 75
     0
 76
     1
 98
        0
  0
SPLINE
  5
67
330
3C
100
AcDbEntity
  8
GT Stripes
370
     0
100
AcDbSpline
210
0.0
220
0.0
230
1.0
 70
    11
 71
     3
 72
    29
 73
    25
 74
     0
 42
0.0000000001
 43
0.0000000001
 40
0.0
 40
0.0
 40
0.0
 40
0.0
 40
1.0
 40
1.0
 40
1.0
 40
2.0
 40
2.0
 40
2.0
 40
3.0
 40
3.0
 40
3.0
 40
4.0
 40
4.0
 40
4.0
 40
5.0
 40
5.0
 40
5.0
 40
6.0
 40
6.0
 40
6.0
 40
7.0
 40
7.0
 40
7.0
 40
8.0
 40
8.0
 40
8.0
 40
8.0
 10
44.5485591082026
 20
167.2641470310132
 30
0.0
 10
44.5485591082026
 20
167.2641470310132
 30
0.0
 10
33.65963862461309
 20
201.441583848648
 30
0.0
 10
33.65963862461309
 20
201.441583848648
 30
0.0
 10
33.32425835787551
 20
202.4940612137052
 30
0.0
 10
33.94782105206658
 20
203.3470674185766
 30
0.0
 10
35.05249164815699
 20
203.3470674185766
 30
0.0
 10
35.05249164815699
 20
203.3470674185766
 30
0.0
 10
1176.417512978174
 20
203.3470674185766
 30
0.0
 10
1176.417512978174
 20
203.3470674185766
 30
0.0
 10
1177.522011319376
 20
203.3470674185766
 30
0.0
 10
1178.338499488013
 20
202.4551316090403
 30
0.0
 10
1178.241347731239
 20
201.3547673851473
 30
0.0
 10
1178.241347731239
 20
201.3547673851473
 30
0.0
 10
1175.23446640809
 20
167.3509634945138
 30
0.0
 10
1175.23446640809
 20
167.3509634945138
 30
0.0
 10
1175.137314651315
 20
166.2505992706209
 30
0.0
 10
1174.163041005364
 20
165.3586634610846
 30
0.0
 10
1173.058542664161
 20
165.3586634610846
 30
0.0
 10
1173.058542664161
 20
165.3586634610846
 30
0.0
 10
47.155809091428
 20
165.3586634610846
 30
0.0
 10
47.155809091428
 20
165.3586634610846
 30
0.0
 10
46.05113849533758
 20
165.3586634610846
 30
0.0
 10
44.88393937494016
 20
166.2116696659559
 30
0.0
 10
44.5485591082026
 20
167.2641470310132
 30
0.0
  0
HATCH
  5
68
330
3C
100
AcDbEntity
  8
GT Stripes
 62
   250
420
  2235935
100
AcDbHatch
 10
0.0
 20
0.0
 30
0.0
210
0.0
220
0.0
230
1.0
  2
SOLID
 70
     1
 71
     0
 91
        1
 92
        1
 93
        1
 72
     4
 94
        3
 73
     0
 74
     1
 95
       29
 96
       25
 40
0.0
 40
0.0
 40
0.0
 40
0.0
 40
1.0
 40
1.0
 40
1.0
 40
2.0
 40
2.0
 40
2.0
 40
3.0
 40
3.0
 40
3.0
 40
4.0
 40
4.0
 40
4.0
 40
5.0
 40
5.0
 40
5.0
 40
6.0
 40
6.0
 40
6.0
 40
7.0
 40
7.0
 40
7.0
 40
8.0
 40
8.0
 40
8.0
 40
8.0
 10
44.5485591082026
 20
167.2641470310132
 10
44.5485591082026
 20
167.2641470310132
 10
33.65963862461309
 20
201.441583848648
 10
33.65963862461309
 20
201.441583848648
 10
33.32425835787551
 20
202.4940612137052
 10
33.94782105206658
 20
203.3470674185766
 10
35.05249164815699
 20
203.3470674185766
 10
35.05249164815699
 20
203.3470674185766
 10
1176.417512978174
 20
203.3470674185766
 10
1176.417512978174
 20
203.3470674185766
 10
1177.522011319376
 20
203.3470674185766
 10
1178.338499488013
 20
202.4551316090403
 10
1178.241347731239
 20
201.3547673851473
 10
1178.241347731239
 20
201.3547673851473
 10
1175.23446640809
 20
167.3509634945138
 10
1175.23446640809
 20
167.3509634945138
 10
1175.137314651315
 20
166.2505992706209
 10
1174.163041005364
 20
165.3586634610846
 10
1173.058542664161
 20
165.3586634610846
 10
1173.058542664161
 20
165.3586634610846
 10
47.155809091428
 20
165.3586634610846
 10
47.155809091428
 20
165.3586634610846
 10
46.05113849533758
 20
165.3586634610846
 10
44.88393937494016
 20
166.2116696659559
 10
44.5485591082026
 20
167.2641470310132
 97
        0
 75
     0
 76
     1
 98
        0
  0
SPLINE
  5
69
330
3C
100
AcDbEntity
  8
GT Stripes
370
     0
100
AcDbSpline
210
0.0
220
0.0
230
1.0
 70
    11
 71
     3
 72
    29
 73
    25
 74
     0
 42
0.0000000001
 43
0.0000000001
 40
0.0
 40
0.0
 40
0.0
 40
0.0
 40
1.0
 40
1.0
 40
1.0
 40
2.0
 40
2.0
 40
2.0
 40
3.0
 40
3.0
 40
3.0
 40
4.0
 40
4.0
 40
4.0
 40
5.0
 40
5.0
 40
5.0
 40
6.0
 40
6.0
 40
6.0
 40
7.0
 40
7.0
 40
7.0
 40
8.0
 40
8.0
 40
8.0
 40
8.0
 10
1159.841425115741
 20
235.3587435306687
 30
0.0
 10
1159.841425115741
 20
235.3587435306687
 30
0.0
 10
840.1098259241603
 20
235.3587435306687
 30
0.0
 10
840.1098259241603
 20
235.3587435306687
 30
0.0
 10
839.0053275829578
 20
235.3587435306687
 30
0.0
 10
838.1895284338724
 20
236.250679340205
 30
0.0
 10
838.2877137199744
 20
237.3506990543221
 30
0.0
 10
838.2877137199744
 20
237.3506990543221
 30
0.0
 10
841.3228448447386
 20
271.3551919645072
 30
0.0
 10
841.3228448447386
 20
271.3551919645072
 30
0.0
 10
841.4210301308404
 20
272.4552116786243
 30
0.0
 10
842.3959927963436
 20
273.3471474881606
 30
0.0
 10
843.5004911375462
 20
273.3471474881606
 30
0.0
 10
843.5004911375462
 20
273.3471474881606
 30
0.0
 10
1167.366896658233
 20
273.3471474881606
 30
0.0
 10
1167.366896658233
 20
273.3471474881606
 30
0.0
 10
1168.471394999435
 20
273.3471474881606
 30
0.0
 10
1169.192798469953
 20
272.4686475598804
 30
0.0
 10
1168.978168879632
 20
271.3851643150014
 30
0.0
 10
1168.978168879632
 20
271.3851643150014
 30
0.0
 10
1162.229911391336
 20
237.3207267038279
 30
0.0
 10
1162.229911391336
 20
237.3207267038279
 30
0.0
 10
1162.015281801015
 20
236.2372434589489
 30
0.0
 10
1160.945923456944
 20
235.3587435306687
 30
0.0
 10
1159.841425115741
 20
235.3587435306687
 30
0.0
  0
HATCH
  5
6A
330
3C
100
AcDbEntity
  8
GT Stripes
 62
   250
420
  2235935
100
AcDbHatch
 10
0.0
 20
0.0
 30
0.0
210
0.0
220
0.0
230
1.0
  2
SOLID
 70
     1
 71
     0
 91
        1
 92
        1
 93
        1
 72
     4
 94
        3
 73
     0
 74
     1
 95
       29
 96
       25
 40
0.0
 40
0.0
 40
0.0
 40
0.0
 40
1.0
 40
1.0
 40
1.0
 40
2.0
 40
2.0
 40
2.0
 40
3.0
 40
3.0
 40
3.0
 40
4.0
 40
4.0
 40
4.0
 40
5.0
 40
5.0
 40
5.0
 40
6.0
 40
6.0
 40
6.0
 40
7.0
 40
7.0
 40
7.0
 40
8.0
 40
8.0
 40
8.0
 40
8.0
 10
1159.841425115741
 20
235.3587435306687
 10
1159.841425115741
 20
235.3587435306687
 10
840.1098259241603
 20
235.3587435306687
 10
840.1098259241603
 20
235.3587435306687
 10
839.0053275829578
 20
235.3587435306687
 10
838.1895284338724
 20
236.250679340205
 10
838.2877137199744
 20
237.3506990543221
 10
838.2877137199744
 20
237.3506990543221
 10
841.3228448447386
 20
271.3551919645072
 10
841.3228448447386
 20
271.3551919645072
 10
841.4210301308404
 20
272.4552116786243
 10
842.3959927963436
 20
273.3471474881606
 10
843.5004911375462
 20
273.3471474881606
 10
843.5004911375462
 20
273.3471474881606
 10
1167.366896658233
 20
273.3471474881606
 10
1167.366896658233
 20
273.3471474881606
 10
1168.471394999435
 20
273.3471474881606
 10
1169.192798469953
 20
272.4686475598804
 10
1168.978168879632
 20
271.3851643150014
 10
1168.978168879632
 20
271.3851643150014
 10
1162.229911391336
 20
237.3207267038279
 10
1162.229911391336
 20
237.3207267038279
 10
1162.015281801015
 20
236.2372434589489
 10
1160.945923456944
 20
235.3587435306687
 10
1159.841425115741
 20
235.3587435306687
 97
        0
 75
     0
 76
     1
 98
        0
  0
INSERT
  5
6C
330
3C
100
AcDbEntity
  8
GT Stripes
100
AcDbBlockReference
  2
block 8
 10
0.0
 20
0.0
 30
0.0
  0
INSERT
  5
78
330
3C
100
AcDbEntity
  8
GT Stripes
100
AcDbBlockReference
  2
block 10
 10
0.0
 20
0.0
 30
0.0
  0
ENDBLK
  5
3F
330
3C
100
AcDbEntity
  8
0
100
AcDbBlockEnd
  0
BLOCK
  5
44
330
42
100
AcDbEntity
  8
0
100
AcDbBlockBegin
  2
block 3
 70
     0
 71
     0
 10
0.0
 20
0.0
 30
0.0
  3
block 3
  1

  0
INSERT
  5
47
330
42
100
AcDbEntity
  8
GT Stripes
100
AcDbBlockReference
  2
block 4
 10
0.0
 20
0.0
 30
0.0
  0
ENDBLK
  5
45
330
42
100
AcDbEntity
  8
0
100
AcDbBlockEnd
  0
BLOCK
  5
48
330
46
100
AcDbEntity
  8
0
100
AcDbBlockBegin
  2
block 4
 70
     0
 71
     0
 10
0.0
 20
0.0
 30
0.0
  3
block 4
  1

  0
SPLINE
  5
4A
330
46
100
AcDbEntity
  8
GT Stripes
370
     0
100
AcDbSpline
210
0.0
220
0.0
230
1.0
 70
    11
 71
     3
 72
    29
 73
    25
 74
     0
 42
0.0000000001
 43
0.0000000001
 40
0.0
 40
0.0
 40
0.0
 40
0.0
 40
1.0
 40
1.0
 40
1.0
 40
2.0
 40
2.0
 40
2.0
 40
3.0
 40
3.0
 40
3.0
 40
4.0
 40
4.0
 40
4.0
 40
5.0
 40
5.0
 40
5.0
 40
6.0
 40
6.0
 40
6.0
 40
7.0
 40
7.0
 40
7.0
 40
8.0
 40
8.0
 40
8.0
 40
8.0
 10
1090.246660797381
 20
110.6696313572097
 30
0.0
 10
1090.246660797381
 20
110.6696313572097
 30
0.0
 10
1083.755063092054
 20
110.6696313572097
 30
0.0
 10
1083.755063092054
 20
110.6696313572097
 30
0.0
 10
1083.037793738847
 20
110.6696313572097
 30
0.0
 10
1082.109339893076
 20
110.3292556987231
 30
0.0
 10
1081.681458751537
 20
109.9096427918033
 30
0.0
 10
1081.681458751537
 20
109.9096427918033
 30
0.0
 10
1074.705480301441
 20
103.0694011933704
 30
0.0
 10
1074.705480301441
 20
103.0694011933704
 30
0.0
 10
1074.277599159902
 20
102.6497882864507
 30
0.0
 10
1074.511521297667
 20
102.3094126279641
 30
0.0
 10
1075.228790650875
 20
102.3094126279641
 30
0.0
 10
1075.228790650875
 20
102.3094126279641
 30
0.0
 10
1081.720388356202
 20
102.3094126279641
 30
0.0
 10
1081.720388356202
 20
102.3094126279641
 30
0.0
 10
1082.43765770941
 20
102.3094126279641
 30
0.0
 10
1083.365767045404
 20
102.6497882864507
 30
0.0
 10
1083.793992696719
 20
103.0694011933704
 30
0.0
 10
1083.793992696719
 20
103.0694011933704
 30
0.0
 10
1090.769971146816
 20
109.9096427918033
 30
0.0
 10
1090.769971146816
 20
109.9096427918033
 30
0.0
 10
1091.197852288355
 20
110.3292556987231
 30
0.0
 10
1090.963930150589
 20
110.6696313572097
 30
0.0
 10
1090.246660797381
 20
110.6696313572097
 30
0.0
  0
SPLINE
  5
4B
330
46
100
AcDbEntity
  8
GT Stripes
370
     0
100
AcDbSpline
210
0.0
220
0.0
230
1.0
 70
    11
 71
     3
 72
    29
 73
    25
 74
     0
 42
0.0000000001
 43
0.0000000001
 40
0.0
 40
0.0
 40
0.0
 40
0.0
 40
1.0
 40
1.0
 40
1.0
 40
2.0
 40
2.0
 40
2.0
 40
3.0
 40
3.0
 40
3.0
 40
4.0
 40
4.0
 40
4.0
 40
5.0
 40
5.0
 40
5.0
 40
6.0
 40
6.0
 40
6.0
 40
7.0
 40
7.0
 40
7.0
 40
8.0
 40
8.0
 40
8.0
 40
8.0
 10
1108.376143238879
 20
110.6696313572097
 30
0.0
 10
1108.376143238879
 20
110.6696313572097
 30
0.0
 10
1101.884201023776
 20
110.6696313572097
 30
0.0
 10
1101.884201023776
 20
110.6696313572097
 30
0.0
 10
1101.167276180344
 20
110.6696313572097
 30
0.0
 10
1100.238822334574
 20
110.3292556987231
 30
0.0
 10
1099.810941193035
 20
109.9096427918033
 30
0.0
 10
1099.810941193035
 20
109.9096427918033
 30
0.0
 10
1092.834962742938
 20
103.0694011933704
 30
0.0
 10
1092.834962742938
 20
103.0694011933704
 30
0.0
 10
1092.406737091623
 20
102.6497882864507
 30
0.0
 10
1092.641003739165
 20
102.3094126279641
 30
0.0
 10
1093.358273092372
 20
102.3094126279641
 30
0.0
 10
1093.358273092372
 20
102.3094126279641
 30
0.0
 10
1099.8498707977
 20
102.3094126279641
 30
0.0
 10
1099.8498707977
 20
102.3094126279641
 30
0.0
 10
1100.566795641131
 20
102.3094126279641
 30
0.0
 10
1101.495249486902
 20
102.6497882864507
 30
0.0
 10
1101.923130628441
 20
103.0694011933704
 30
0.0
 10
1101.923130628441
 20
103.0694011933704
 30
0.0
 10
1108.899109078538
 20
109.9096427918033
 30
0.0
 10
1108.899109078538
 20
109.9096427918033
 30
0.0
 10
1109.327334729852
 20
110.3292556987231
 30
0.0
 10
1109.093068082311
 20
110.6696313572097
 30
0.0
 10
1108.376143238879
 20
110.6696313572097
 30
0.0
  0
SPLINE
  5
4C
330
46
100
AcDbEntity
  8
GT Stripes
370
     0
100
AcDbSpline
210
0.0
220
0.0
230
1.0
 70
    11
 71
     3
 72
    29
 73
    25
 74
     0
 42
0.0000000001
 43
0.0000000001
 40
0.0
 40
0.0
 40
0.0
 40
0.0
 40
1.0
 40
1.0
 40
1.0
 40
2.0
 40
2.0
 40
2.0
 40
3.0
 40
3.0
 40
3.0
 40
4.0
 40
4.0
 40
4.0
 40
5.0
 40
5.0
 40
5.0
 40
6.0
 40
6.0
 40
6.0
 40
7.0
 40
7.0
 40
7.0
 40
8.0
 40
8.0
 40
8.0
 40
8.0
 10
1126.505281170601
 20
110.6696313572097
 30
0.0
 10
1126.505281170601
 20
110.6696313572097
 30
0.0
 10
1120.013683465274
 20
110.6696313572097
 30
0.0
 10
1120.013683465274
 20
110.6696313572097
 30
0.0
 10
1119.296414112066
 20
110.6696313572097
 30
0.0
 10
1118.368304776071
 20
110.3292556987231
 30
0.0
 10
1117.940079124756
 20
109.9096427918033
 30
0.0
 10
1117.940079124756
 20
109.9096427918033
 30
0.0
 10
1110.96410067466
 20
103.0694011933704
 30
0.0
 10
1110.96410067466
 20
103.0694011933704
 30
0.0
 10
1110.536219533121
 20
102.6497882864507
 30
0.0
 10
1110.770486180662
 20
102.3094126279641
 30
0.0
 10
1111.48775553387
 20
102.3094126279641
 30
0.0
 10
1111.48775553387
 20
102.3094126279641
 30
0.0
 10
1117.979008729421
 20
102.3094126279641
 30
0.0
 10
1117.979008729421
 20
102.3094126279641
 30
0.0
 10
1118.696278082629
 20
102.3094126279641
 30
0.0
 10
1119.624387418624
 20
102.6497882864507
 30
0.0
 10
1120.052613069939
 20
103.0694011933704
 30
0.0
 10
1120.052613069939
 20
103.0694011933704
 30
0.0
 10
1127.028591520035
 20
109.9096427918033
 30
0.0
 10
1127.028591520035
 20
109.9096427918033
 30
0.0
 10
1127.456472661574
 20
110.3292556987231
 30
0.0
 10
1127.222206014033
 20
110.6696313572097
 30
0.0
 10
1126.505281170601
 20
110.6696313572097
 30
0.0
  0
INSERT
  5
4E
330
46
100
AcDbEntity
  8
GT Stripes
100
AcDbBlockReference
  2
block 5
 10
0.0
 20
0.0
 30
0.0
  0
HATCH
  5
58
330
46
100
AcDbEntity
  8
GT Stripes
 62
   250
420
  2235935
100
AcDbHatch
 10
0.0
 20
0.0
 30
0.0
210
0.0
220
0.0
230
1.0
  2
SOLID
 70
     1
 71
     0
 91
       10
 92
        1
 93
        1
 72
     4
 94
        3
 73
     0
 74
     1
 95
       29
 96
       25
 40
0.0
 40
0.0
 40
0.0
 40
0.0
 40
1.0
 40
1.0
 40
1.0
 40
2.0
 40
2.0
 40
2.0
 40
3.0
 40
3.0
 40
3.0
 40
4.0
 40
4.0
 40
4.0
 40
5.0
 40
5.0
 40
5.0
 40
6.0
 40
6.0
 40
6.0
 40
7.0
 40
7.0
 40
7.0
 40
8.0
 40
8.0
 40
8.0
 40
8.0
 10
1090.246660797381
 20
110.6696313572097
 10
1090.246660797381
 20
110.6696313572097
 10
1083.755063092054
 20
110.6696313572097
 10
1083.755063092054
 20
110.6696313572097
 10
1083.037793738847
 20
110.6696313572097
 10
1082.109339893076
 20
110.3292556987231
 10
1081.681458751537
 20
109.9096427918033
 10
1081.681458751537
 20
109.9096427918033
 10
1074.705480301441
 20
103.0694011933704
 10
1074.705480301441
 20
103.0694011933704
 10
1074.277599159902
 20
102.6497882864507
 10
1074.511521297667
 20
102.3094126279641
 10
1075.228790650875
 20
102.3094126279641
 10
1075.228790650875
 20
102.3094126279641
 10
1081.720388356202
 20
102.3094126279641
 10
1081.720388356202
 20
102.3094126279641
 10
1082.43765770941
 20
102.3094126279641
 10
1083.365767045404
 20
102.6497882864507
 10
1083.793992696719
 20
103.0694011933704
 10
1083.793992696719
 20
103.0694011933704
 10
1090.769971146816
 20
109.9096427918033
 10
1090.769971146816
 20
109.9096427918033
 10
1091.197852288355
 20
110.3292556987231
 10
1090.963930150589
 20
110.6696313572097
 10
1090.246660797381
 20
110.6696313572097
 97
        0
 92
        1
 93
        1
 72
     4
 94
        3
 73
     0
 74
     1
 95
       29
 96
       25
 40
0.0
 40
0.0
 40
0.0
 40
0.0
 40
1.0
 40
1.0
 40
1.0
 40
2.0
 40
2.0
 40
2.0
 40
3.0
 40
3.0
 40
3.0
 40
4.0
 40
4.0
 40
4.0
 40
5.0
 40
5.0
 40
5.0
 40
6.0
 40
6.0
 40
6.0
 40
7.0
 40
7.0
 40
7.0
 40
8.0
 40
8.0
 40
8.0
 40
8.0
 10
1108.376143238879
 20
110.6696313572097
 10
1108.376143238879
 20
110.6696313572097
 10
1101.884201023776
 20
110.6696313572097
 10
1101.884201023776
 20
110.6696313572097
 10
1101.167276180344
 20
110.6696313572097
 10
1100.238822334574
 20
110.3292556987231
 10
1099.810941193035
 20
109.9096427918033
 10
1099.810941193035
 20
109.9096427918033
 10
1092.834962742938
 20
103.0694011933704
 10
1092.834962742938
 20
103.0694011933704
 10
1092.406737091623
 20
102.6497882864507
 10
1092.641003739165
 20
102.3094126279641
 10
1093.358273092372
 20
102.3094126279641
 10
1093.358273092372
 20
102.3094126279641
 10
1099.8498707977
 20
102.3094126279641
 10
1099.8498707977
 20
102.3094126279641
 10
1100.566795641131
 20
102.3094126279641
 10
1101.495249486902
 20
102.6497882864507
 10
1101.923130628441
 20
103.0694011933704
 10
1101.923130628441
 20
103.0694011933704
 10
1108.899109078538
 20
109.9096427918033
 10
1108.899109078538
 20
109.9096427918033
 10
1109.327334729852
 20
110.3292556987231
 10
1109.093068082311
 20
110.6696313572097
 10
1108.376143238879
 20
110.6696313572097
 97
        0
 92
        1
 93
        1
 72
     4
 94
        3
 73
     0
 74
     1
 95
       29
 96
       25
 40
0.0
 40
0.0
 40
0.0
 40
0.0
 40
1.0
 40
1.0
 40
1.0
 40
2.0
 40
2.0
 40
2.0
 40
3.0
 40
3.0
 40
3.0
 40
4.0
 40
4.0
 40
4.0
 40
5.0
 40
5.0
 40
5.0
 40
6.0
 40
6.0
 40
6.0
 40
7.0
 40
7.0
 40
7.0
 40
8.0
 40
8.0
 40
8.0
 40
8.0
 10
1126.505281170601
 20
110.6696313572097
 10
1126.505281170601
 20
110.6696313572097
 10
1120.013683465274
 20
110.6696313572097
 10
1120.013683465274
 20
110.6696313572097
 10
1119.296414112066
 20
110.6696313572097
 10
1118.368304776071
 20
110.3292556987231
 10
1117.940079124756
 20
109.9096427918033
 10
1117.940079124756
 20
109.9096427918033
 10
1110.96410067466
 20
103.0694011933704
 10
1110.96410067466
 20
103.0694011933704
 10
1110.536219533121
 20
102.6497882864507
 10
1110.770486180662
 20
102.3094126279641
 10
1111.48775553387
 20
102.3094126279641
 10
1111.48775553387
 20
102.3094126279641
 10
1117.979008729421
 20
102.3094126279641
 10
1117.979008729421
 20
102.3094126279641
 10
1118.696278082629
 20
102.3094126279641
 10
1119.624387418624
 20
102.6497882864507
 10
1120.052613069939
 20
103.0694011933704
 10
1120.052613069939
 20
103.0694011933704
 10
1127.028591520035
 20
109.9096427918033
 10
1127.028591520035
 20
109.9096427918033
 10
1127.456472661574
 20
110.3292556987231
 10
1127.222206014033
 20
110.6696313572097
 10
1126.505281170601
 20
110.6696313572097
 97
        0
 92
        1
 93
        1
 72
     4
 94
        3
 73
     0
 74
     1
 95
       29
 96
       25
 40
0.0
 40
0.0
 40
0.0
 40
0.0
 40
1.0
 40
1.0
 40
1.0
 40
2.0
 40
2.0
 40
2.0
 40
3.0
 40
3.0
 40
3.0
 40
4.0
 40
4.0
 40
4.0
 40
5.0
 40
5.0
 40
5.0
 40
6.0
 40
6.0
 40
6.0
 40
7.0
 40
7.0
 40
7.0
 40
8.0
 40
8.0
 40
8.0
 40
8.0
 10
1176.632142568495
 20
133.3469873489925
 10
1176.632142568495
 20
133.3469873489925
 10
934.0328370799182
 20
133.3469873489925
 10
934.0328370799182
 20
133.3469873489925
 10
932.9279942289398
 20
133.3469873489925
 10
931.759761579215
 20
132.494325653897
 10
931.4231755282623
 20
131.4421927986155
 10
931.4231755282623
 20
131.4421927986155
 10
920.484645636958
 20
97.26337794187758
 10
920.484645636958
 20
97.26337794187758
 10
920.1480595860052
 20
96.21124508659608
 10
920.7705887508689
 20
95.35858339150056
 10
921.8750870920715
 20
95.35858339150056
 10
921.8750870920715
 20
95.35858339150056
 10
1168.318777168758
 20
95.35858339150056
 10
1168.318777168758
 20
95.35858339150056
 10
1169.42327550996
 20
95.35858339150056
 10
1170.509859342821
 20
96.23329371224703
 10
1170.746193049017
 20
97.31229833004063
 10
1170.746193049017
 20
97.31229833004063
 10
1178.204829695004
 20
131.3932724104524
 10
1178.204829695004
 20
131.3932724104524
 10
1178.440818891425
 20
132.472277028246
 10
1177.736985419473
 20
133.3469873489925
 10
1176.632142568495
 20
133.3469873489925
 97
        0
 92
        1
 93
        1
 72
     4
 94
        3
 73
     0
 74
     1
 95
       83
 96
       79
 40
0.0
 40
0.0
 40
0.0
 40
0.0
 40
1.0
 40
1.0
 40
1.0
 40
2.0
 40
2.0
 40
2.0
 40
3.0
 40
3.0
 40
3.0
 40
4.0
 40
4.0
 40
4.0
 40
5.0
 40
5.0
 40
5.0
 40
6.0
 40
6.0
 40
6.0
 40
7.0
 40
7.0
 40
7.0
 40
8.0
 40
8.0
 40
8.0
 40
9.0
 40
9.0
 40
9.0
 40
10.0
 40
10.0
 40
10.0
 40
11.0
 40
11.0
 40
11.0
 40
12.0
 40
12.0
 40
12.0
 40
13.0
 40
13.0
 40
13.0
 40
14.0
 40
14.0
 40
14.0
 40
15.0
 40
15.0
 40
15.0
 40
16.0
 40
16.0
 40
16.0
 40
17.0
 40
17.0
 40
17.0
 40
18.0
 40
18.0
 40
18.0
 40
19.0
 40
19.0
 40
19.0
 40
20.0
 40
20.0
 40
20.0
 40
21.0
 40
21.0
 40
21.0
 40
22.0
 40
22.0
 40
22.0
 40
23.0
 40
23.0
 40
23.0
 40
24.0
 40
24.0
 40
24.0
 40
25.0
 40
25.0
 40
25.0
 40
26.0
 40
26.0
 40
26.0
 40
26.0
 10
1028.867421102433
 20
112.1527459420122
 10
1028.867421102433
 20
112.1527459420122
 10
1027.667838063111
 20
110.5528425432148
 10
1027.667838063111
 20
110.5528425432148
 10
1027.502128860953
 20
110.3320117769294
 10
1027.143838694124
 20
110.1528666935154
 10
1026.867886363712
 20
110.1528666935154
 10
1026.867886363712
 20
110.1528666935154
 10
1018.267544320736
 20
110.1528666935154
 10
1018.267544320736
 20
110.1528666935154
 10
1017.991591990324
 20
110.1528666935154
 10
1017.617454373809
 20
109.9868129815817
 10
1017.432108114431
 20
109.7821741747588
 10
1017.432108114431
 20
109.7821741747588
 10
1010.502982993842
 20
102.1233773490341
 10
1010.502982993842
 20
102.1233773490341
 10
1010.31798124424
 20
101.9187385422112
 10
1009.964169704497
 20
101.8457024697424
 10
1009.71233305839
 20
101.9587016762036
 10
1008.74942823504
 20
102.3914059546035
 10
1007.652853618681
 20
102.8527045443946
 10
1006.967623674622
 20
102.8527045443946
 10
1005.058005987384
 20
102.8527045443946
 10
1002.220278964151
 20
101.8370897253475
 10
1000.167689719957
 20
101.1528933106163
 10
996.1417484800031
 20
99.81068322411444
 10
991.1690943761612
 20
99.15266955234377
 10
985.9676857811907
 20
99.15266955234377
 10
980.4010968238762
 20
99.15266955234377
 10
966.367835616595
 20
100.1193639832278
 10
966.367835616595
 20
106.3529238664837
 10
966.367835616595
 20
111.5195369740988
 10
975.934183070903
 20
125.3529825114182
 10
995.9677710432261
 20
125.3529825114182
 10
999.2030623477278
 20
125.3529825114182
 10
1025.613181760262
 20
125.3529825114182
 10
1029.587791043622
 20
125.3529825114182
 10
1029.863743374035
 20
125.3529825114182
 10
1029.932645329194
 20
125.1914074265698
 10
1029.741442403628
 20
124.9922807761596
 10
1029.741442403628
 20
124.9922807761596
 10
1025.63385234681
 20
120.7134693607712
 10
1025.63385234681
 20
120.7134693607712
 10
1025.442649421243
 20
120.514342710361
 10
1025.064033177643
 20
120.3527676255126
 10
1024.787736337455
 20
120.3527676255126
 10
1021.294407210881
 20
120.3527676255126
 10
1000.542860865799
 20
120.3527676255126
 10
995.9677710432261
 20
120.3527676255126
 10
981.3677912547602
 20
120.3527676255126
 10
970.1677784436267
 20
112.1527459420122
 10
970.1677784436267
 20
106.3529238664837
 10
970.1677784436267
 20
102.1530051897526
 10
983.0011121018099
 20
101.952845010015
 10
985.9676857811907
 20
101.952845010015
 10
998.2790871290425
 20
101.952845010015
 10
1005.02803363689
 20
106.5902911020073
 10
1006.397459995679
 20
109.6832998691053
 10
1006.509081163037
 20
109.9354810249881
 10
1006.343371960879
 20
110.1528666935154
 10
1006.067419630467
 20
110.1528666935154
 10
1003.386444555221
 20
110.1528666935154
 10
991.6424508081052
 20
110.1528666935154
 10
989.0675847438046
 20
110.1528666935154
 10
988.7916324133919
 20
110.1528666935154
 10
988.7020598716848
 20
110.3320117769294
 10
988.8677690738429
 20
110.5528425432148
 10
988.8677690738429
 20
110.5528425432148
 10
990.0676966229408
 20
112.1527459420122
 10
990.0676966229408
 20
112.1527459420122
 10
990.2334058250988
 20
112.3735767082975
 10
990.5916959919268
 20
112.5527217917115
 10
990.8679928321153
 20
112.5527217917115
 10
990.8679928321153
 20
112.5527217917115
 10
1028.667605432471
 20
112.5527217917115
 10
1028.667605432471
 20
112.5527217917115
 10
1028.943557762884
 20
112.5527217917115
 10
1029.033130304591
 20
112.3735767082975
 10
1028.867421102433
 20
112.1527459420122
 97
        0
 92
        1
 93
        1
 72
     4
 94
        3
 73
     0
 74
     1
 95
       53
 96
       49
 40
0.0
 40
0.0
 40
0.0
 40
0.0
 40
1.0
 40
1.0
 40
1.0
 40
2.0
 40
2.0
 40
2.0
 40
3.0
 40
3.0
 40
3.0
 40
4.0
 40
4.0
 40
4.0
 40
5.0
 40
5.0
 40
5.0
 40
6.0
 40
6.0
 40
6.0
 40
7.0
 40
7.0
 40
7.0
 40
8.0
 40
8.0
 40
8.0
 40
9.0
 40
9.0
 40
9.0
 40
10.0
 40
10.0
 40
10.0
 40
11.0
 40
11.0
 40
11.0
 40
12.0
 40
12.0
 40
12.0
 40
13.0
 40
13.0
 40
13.0
 40
14.0
 40
14.0
 40
14.0
 40
15.0
 40
15.0
 40
15.0
 40
16.0
 40
16.0
 40
16.0
 40
16.0
 10
1040.467754273041
 20
100.3529416112176
 10
1040.467754273041
 20
100.3529416112176
 10
1033.467660138639
 20
100.3529416112176
 10
1033.467660138639
 20
100.3529416112176
 10
1033.191707808226
 20
100.3529416112176
 10
1033.122805853067
 20
100.514516696066
 10
1033.314008778634
 20
100.7136433464762
 10
1033.314008778634
 20
100.7136433464762
 10
1051.82141844418
 20
119.992065890254
 10
1051.82141844418
 20
119.992065890254
 10
1052.012621369747
 20
120.1911925406642
 10
1051.943719414588
 20
120.3527676255126
 10
1051.667767084175
 20
120.3527676255126
 10
1051.667767084175
 20
120.3527676255126
 10
1029.187470684147
 20
120.3527676255126
 10
1029.187470684147
 20
120.3527676255126
 10
1028.911518353735
 20
120.3527676255126
 10
1028.842616398576
 20
120.514342710361
 10
1029.033819324142
 20
120.7134693607712
 10
1029.033819324142
 20
120.7134693607712
 10
1033.14140938096
 20
124.9922807761596
 10
1033.14140938096
 20
124.9922807761596
 10
1033.332612306527
 20
125.1914074265698
 10
1033.711573059903
 20
125.3529825114182
 10
1033.987525390315
 20
125.3529825114182
 10
1033.987525390315
 20
125.3529825114182
 10
1086.867708916373
 20
125.3529825114182
 10
1086.867708916373
 20
125.3529825114182
 10
1087.143661246785
 20
125.3529825114182
 10
1087.203261437998
 20
125.2007091905163
 10
1087.00068968983
 20
125.0132958724832
 10
1087.00068968983
 20
125.0132958724832
 10
1082.334649286447
 20
120.6924542644476
 10
1082.334649286447
 20
120.6924542644476
 10
1082.132077538279
 20
120.5050409464145
 10
1081.743815020956
 20
120.3527676255126
 10
1081.467862690543
 20
120.3527676255126
 10
1081.467862690543
 20
120.3527676255126
 10
1060.667395957298
 20
120.3527676255126
 10
1060.667395957298
 20
120.3527676255126
 10
1060.391443626885
 20
120.3527676255126
 10
1060.01248287351
 20
120.1911925406642
 10
1059.821279947943
 20
119.992065890254
 10
1059.821279947943
 20
119.992065890254
 10
1041.313870282397
 20
100.7136433464762
 10
1041.313870282397
 20
100.7136433464762
 10
1041.12266735683
 20
100.514516696066
 10
1040.743706603454
 20
100.3529416112176
 10
1040.467754273041
 20
100.3529416112176
 97
        0
 92
        1
 93
        1
 72
     4
 94
        3
 73
     0
 74
     1
 95
       56
 96
       52
 40
0.0
 40
0.0
 40
0.0
 40
0.0
 40
1.0
 40
1.0
 40
1.0
 40
2.0
 40
2.0
 40
2.0
 40
3.0
 40
3.0
 40
3.0
 40
4.0
 40
4.0
 40
4.0
 40
5.0
 40
5.0
 40
5.0
 40
6.0
 40
6.0
 40
6.0
 40
7.0
 40
7.0
 40
7.0
 40
8.0
 40
8.0
 40
8.0
 40
9.0
 40
9.0
 40
9.0
 40
10.0
 40
10.0
 40
10.0
 40
11.0
 40
11.0
 40
11.0
 40
12.0
 40
12.0
 40
12.0
 40
13.0
 40
13.0
 40
13.0
 40
14.0
 40
14.0
 40
14.0
 40
15.0
 40
15.0
 40
15.0
 40
16.0
 40
16.0
 40
16.0
 40
17.0
 40
17.0
 40
17.0
 40
17.0
 10
1066.060696497387
 20
100.2189273084329
 10
1066.060696497387
 20
100.2189273084329
 10
1047.93121405589
 20
100.2189273084329
 10
1047.93121405589
 20
100.2189273084329
 10
1047.93121405589
 20
100.2189273084329
 10
1049.589339606797
 20
101.8908332503717
 10
1050.418574637138
 20
102.726958476229
 10
1055.392951289859
 20
107.7437098313728
 10
1070.996832564995
 20
109.4159602830874
 10
1072.654613606126
 20
111.088210734802
 10
1073.483848636467
 20
111.9243359606593
 10
1075.97086470794
 20
114.4323671284554
 10
1076.800099738281
 20
115.2684923543127
 10
1077.214544998564
 20
115.6867272221293
 10
1076.931702472635
 20
116.10461758017
 10
1076.2347591962
 20
116.10461758017
 10
1074.840183623777
 20
116.10461758017
 10
1072.051032478931
 20
116.10461758017
 10
1070.656456906508
 20
116.10461758017
 10
1069.958824610521
 20
116.10461758017
 10
1068.847091564027
 20
115.6867272221293
 10
1068.432646303744
 20
115.2684923543127
 10
1067.603411273402
 20
114.4323671284554
 10
1065.116739711706
 20
111.9243359606593
 10
1065.116739711706
 20
111.9243359606593
 10
1065.116739711706
 20
111.9243359606593
 10
1059.538437422014
 20
111.9243359606593
 10
1059.538437422014
 20
111.9243359606593
 10
1059.538437422014
 20
111.9243359606593
 10
1061.196218463145
 20
113.5962419025981
 10
1062.854344014052
 20
115.2684923543127
 10
1064.512469564959
 20
116.9407428060273
 10
1068.130511230371
 20
117.7768680318846
 10
1070.920006884992
 20
117.7768680318846
 10
1073.709158029838
 20
117.7768680318846
 10
1075.103389092485
 20
117.7768680318846
 10
1079.287115809754
 20
117.7768680318846
 10
1083.470842527022
 20
117.7768680318846
 10
1084.03652757888
 20
116.9407428060273
 10
1082.378402027973
 20
115.2684923543127
 10
1080.720276477066
 20
113.5962419025981
 10
1079.891041446724
 20
112.7604611865166
 10
1079.062150926159
 20
111.9243359606593
 10
1075.745555314569
 20
108.5798350572301
 10
1059.312783518868
 20
106.0714593796582
 10
1055.99687692683
 20
102.726958476229
 10
1057.391452499252
 20
102.726958476229
 10
1068.548057078636
 20
102.726958476229
 10
1068.548057078636
 20
102.726958476229
 10
1068.548057078636
 20
102.726958476229
 10
1066.060696497387
 20
100.2189273084329
 10
1066.060696497387
 20
100.2189273084329
 97
        0
 92
        1
 93
        1
 72
     4
 94
        3
 73
     0
 74
     1
 95
       29
 96
       25
 40
0.0
 40
0.0
 40
0.0
 40
0.0
 40
1.0
 40
1.0
 40
1.0
 40
2.0
 40
2.0
 40
2.0
 40
3.0
 40
3.0
 40
3.0
 40
4.0
 40
4.0
 40
4.0
 40
5.0
 40
5.0
 40
5.0
 40
6.0
 40
6.0
 40
6.0
 40
7.0
 40
7.0
 40
7.0
 40
8.0
 40
8.0
 40
8.0
 40
8.0
 10
1080.006452221616
 20
100.2189273084329
 10
1080.006452221616
 20
100.2189273084329
 10
1070.244423214656
 20
100.2189273084329
 10
1070.244423214656
 20
100.2189273084329
 10
1069.474099355976
 20
100.2189273084329
 10
1069.220884670765
 20
100.5930649249475
 10
1069.678738162798
 20
101.0547080245144
 10
1069.678738162798
 20
101.0547080245144
 10
1078.798600947675
 20
110.2520855089447
 10
1078.798600947675
 20
110.2520855089447
 10
1080.172161423774
 20
111.6373593174211
 10
1083.158716670151
 20
112.7604611865166
 10
1085.469343736416
 20
112.7604611865166
 10
1085.469343736416
 20
112.7604611865166
 10
1095.231372743376
 20
112.7604611865166
 10
1095.231372743376
 20
112.7604611865166
 10
1096.001352092281
 20
112.7604611865166
 10
1096.254566777491
 20
112.3859790602262
 10
1095.796713285458
 20
111.9243359606593
 10
1095.796713285458
 20
111.9243359606593
 10
1086.677195010357
 20
102.726958476229
 10
1086.677195010357
 20
102.726958476229
 10
1085.303634534258
 20
101.3416846677526
 10
1082.316734778105
 20
100.2189273084329
 10
1080.006452221616
 20
100.2189273084329
 97
        0
 92
        1
 93
        1
 72
     4
 94
        3
 73
     0
 74
     1
 95
       29
 96
       25
 40
0.0
 40
0.0
 40
0.0
 40
0.0
 40
1.0
 40
1.0
 40
1.0
 40
2.0
 40
2.0
 40
2.0
 40
3.0
 40
3.0
 40
3.0
 40
4.0
 40
4.0
 40
4.0
 40
5.0
 40
5.0
 40
5.0
 40
6.0
 40
6.0
 40
6.0
 40
7.0
 40
7.0
 40
7.0
 40
8.0
 40
8.0
 40
8.0
 40
8.0
 10
1098.135590153338
 20
100.2189273084329
 10
1098.135590153338
 20
100.2189273084329
 10
1088.373561146378
 20
100.2189273084329
 10
1088.373561146378
 20
100.2189273084329
 10
1087.603581797473
 20
100.2189273084329
 10
1087.350367112263
 20
100.5930649249475
 10
1087.808220604296
 20
101.0547080245144
 10
1087.808220604296
 20
101.0547080245144
 10
1096.927738879396
 20
110.2520855089447
 10
1096.927738879396
 20
110.2520855089447
 10
1098.301299355496
 20
111.6373593174211
 10
1101.288199111649
 20
112.7604611865166
 10
1103.598826177913
 20
112.7604611865166
 10
1103.598826177913
 20
112.7604611865166
 10
1113.360510675098
 20
112.7604611865166
 10
1113.360510675098
 20
112.7604611865166
 10
1114.130834533778
 20
112.7604611865166
 10
1114.384049218988
 20
112.3859790602262
 10
1113.926195726955
 20
111.9243359606593
 10
1113.926195726955
 20
111.9243359606593
 10
1104.806677451855
 20
102.726958476229
 10
1104.806677451855
 20
102.726958476229
 10
1103.433116975756
 20
101.3416846677526
 10
1100.446217219603
 20
100.2189273084329
 10
1098.135590153338
 20
100.2189273084329
 97
        0
 92
        1
 93
        1
 72
     4
 94
        3
 73
     0
 74
     1
 95
       29
 96
       25
 40
0.0
 40
0.0
 40
0.0
 40
0.0
 40
1.0
 40
1.0
 40
1.0
 40
2.0
 40
2.0
 40
2.0
 40
3.0
 40
3.0
 40
3.0
 40
4.0
 40
4.0
 40
4.0
 40
5.0
 40
5.0
 40
5.0
 40
6.0
 40
6.0
 40
6.0
 40
7.0
 40
7.0
 40
7.0
 40
8.0
 40
8.0
 40
8.0
 40
8.0
 10
1132.055678168453
 20
111.9243359606593
 10
1132.055678168453
 20
111.9243359606593
 10
1122.935815383577
 20
102.726958476229
 10
1122.935815383577
 20
102.726958476229
 10
1121.562254907477
 20
101.3416846677526
 10
1118.5756996611
 20
100.2189273084329
 10
1116.26472808506
 20
100.2189273084329
 10
1116.26472808506
 20
100.2189273084329
 10
1106.503043587875
 20
100.2189273084329
 10
1106.503043587875
 20
100.2189273084329
 10
1105.732719729195
 20
100.2189273084329
 10
1105.479505043985
 20
100.5930649249475
 10
1105.937703045794
 20
101.0547080245144
 10
1105.937703045794
 20
101.0547080245144
 10
1115.057221320894
 20
110.2520855089447
 10
1115.057221320894
 20
110.2520855089447
 10
1116.430781796993
 20
111.6373593174211
 10
1119.41733704337
 20
112.7604611865166
 10
1121.727964109635
 20
112.7604611865166
 10
1121.727964109635
 20
112.7604611865166
 10
1131.489993116596
 20
112.7604611865166
 10
1131.489993116596
 20
112.7604611865166
 10
1132.260316975276
 20
112.7604611865166
 10
1132.513531660486
 20
112.3859790602262
 10
1132.055678168453
 20
111.9243359606593
 97
        0
 75
     0
 76
     1
 98
        0
  0
ENDBLK
  5
49
330
46
100
AcDbEntity
  8
0
100
AcDbBlockEnd
  0
BLOCK
  5
4F
330
4D
100
AcDbEntity
  8
0
100
AcDbBlockBegin
  2
block 5
 70
     0
 71
     0
 10
0.0
 20
0.0
 30
0.0
  3
block 5
  1

  0
SPLINE
  5
51
330
4D
100
AcDbEntity
  8
GT Stripes
370
     0
100
AcDbSpline
210
0.0
220
0.0
230
1.0
 70
    11
 71
     3
 72
    29
 73
    25
 74
     0
 42
0.0000000001
 43
0.0000000001
 40
0.0
 40
0.0
 40
0.0
 40
0.0
 40
1.0
 40
1.0
 40
1.0
 40
2.0
 40
2.0
 40
2.0
 40
3.0
 40
3.0
 40
3.0
 40
4.0
 40
4.0
 40
4.0
 40
5.0
 40
5.0
 40
5.0
 40
6.0
 40
6.0
 40
6.0
 40
7.0
 40
7.0
 40
7.0
 40
8.0
 40
8.0
 40
8.0
 40
8.0
 10
1176.632142568495
 20
133.3469873489925
 30
0.0
 10
1176.632142568495
 20
133.3469873489925
 30
0.0
 10
934.0328370799182
 20
133.3469873489925
 30
0.0
 10
934.0328370799182
 20
133.3469873489925
 30
0.0
 10
932.9279942289398
 20
133.3469873489925
 30
0.0
 10
931.759761579215
 20
132.494325653897
 30
0.0
 10
931.4231755282623
 20
131.4421927986155
 30
0.0
 10
931.4231755282623
 20
131.4421927986155
 30
0.0
 10
920.484645636958
 20
97.26337794187758
 30
0.0
 10
920.484645636958
 20
97.26337794187758
 30
0.0
 10
920.1480595860052
 20
96.21124508659608
 30
0.0
 10
920.7705887508689
 20
95.35858339150056
 30
0.0
 10
921.8750870920715
 20
95.35858339150056
 30
0.0
 10
921.8750870920715
 20
95.35858339150056
 30
0.0
 10
1168.318777168758
 20
95.35858339150056
 30
0.0
 10
1168.318777168758
 20
95.35858339150056
 30
0.0
 10
1169.42327550996
 20
95.35858339150056
 30
0.0
 10
1170.509859342821
 20
96.23329371224703
 30
0.0
 10
1170.746193049017
 20
97.31229833004063
 30
0.0
 10
1170.746193049017
 20
97.31229833004063
 30
0.0
 10
1178.204829695004
 20
131.3932724104524
 30
0.0
 10
1178.204829695004
 20
131.3932724104524
 30
0.0
 10
1178.440818891425
 20
132.472277028246
 30
0.0
 10
1177.736985419473
 20
133.3469873489925
 30
0.0
 10
1176.632142568495
 20
133.3469873489925
 30
0.0
  0
SPLINE
  5
52
330
4D
100
AcDbEntity
  8
GT Stripes
370
     0
100
AcDbSpline
210
0.0
220
0.0
230
1.0
 70
    11
 71
     3
 72
    83
 73
    79
 74
     0
 42
0.0000000001
 43
0.0000000001
 40
0.0
 40
0.0
 40
0.0
 40
0.0
 40
1.0
 40
1.0
 40
1.0
 40
2.0
 40
2.0
 40
2.0
 40
3.0
 40
3.0
 40
3.0
 40
4.0
 40
4.0
 40
4.0
 40
5.0
 40
5.0
 40
5.0
 40
6.0
 40
6.0
 40
6.0
 40
7.0
 40
7.0
 40
7.0
 40
8.0
 40
8.0
 40
8.0
 40
9.0
 40
9.0
 40
9.0
 40
10.0
 40
10.0
 40
10.0
 40
11.0
 40
11.0
 40
11.0
 40
12.0
 40
12.0
 40
12.0
 40
13.0
 40
13.0
 40
13.0
 40
14.0
 40
14.0
 40
14.0
 40
15.0
 40
15.0
 40
15.0
 40
16.0
 40
16.0
 40
16.0
 40
17.0
 40
17.0
 40
17.0
 40
18.0
 40
18.0
 40
18.0
 40
19.0
 40
19.0
 40
19.0
 40
20.0
 40
20.0
 40
20.0
 40
21.0
 40
21.0
 40
21.0
 40
22.0
 40
22.0
 40
22.0
 40
23.0
 40
23.0
 40
23.0
 40
24.0
 40
24.0
 40
24.0
 40
25.0
 40
25.0
 40
25.0
 40
26.0
 40
26.0
 40
26.0
 40
26.0
 10
1028.867421102433
 20
112.1527459420122
 30
0.0
 10
1028.867421102433
 20
112.1527459420122
 30
0.0
 10
1027.667838063111
 20
110.5528425432148
 30
0.0
 10
1027.667838063111
 20
110.5528425432148
 30
0.0
 10
1027.502128860953
 20
110.3320117769294
 30
0.0
 10
1027.143838694124
 20
110.1528666935154
 30
0.0
 10
1026.867886363712
 20
110.1528666935154
 30
0.0
 10
1026.867886363712
 20
110.1528666935154
 30
0.0
 10
1018.267544320736
 20
110.1528666935154
 30
0.0
 10
1018.267544320736
 20
110.1528666935154
 30
0.0
 10
1017.991591990324
 20
110.1528666935154
 30
0.0
 10
1017.617454373809
 20
109.9868129815817
 30
0.0
 10
1017.432108114431
 20
109.7821741747588
 30
0.0
 10
1017.432108114431
 20
109.7821741747588
 30
0.0
 10
1010.502982993842
 20
102.1233773490341
 30
0.0
 10
1010.502982993842
 20
102.1233773490341
 30
0.0
 10
1010.31798124424
 20
101.9187385422112
 30
0.0
 10
1009.964169704497
 20
101.8457024697424
 30
0.0
 10
1009.71233305839
 20
101.9587016762036
 30
0.0
 10
1008.74942823504
 20
102.3914059546035
 30
0.0
 10
1007.652853618681
 20
102.8527045443946
 30
0.0
 10
1006.967623674622
 20
102.8527045443946
 30
0.0
 10
1005.058005987384
 20
102.8527045443946
 30
0.0
 10
1002.220278964151
 20
101.8370897253475
 30
0.0
 10
1000.167689719957
 20
101.1528933106163
 30
0.0
 10
996.1417484800031
 20
99.81068322411444
 30
0.0
 10
991.1690943761612
 20
99.15266955234377
 30
0.0
 10
985.9676857811907
 20
99.15266955234377
 30
0.0
 10
980.4010968238762
 20
99.15266955234377
 30
0.0
 10
966.367835616595
 20
100.1193639832278
 30
0.0
 10
966.367835616595
 20
106.3529238664837
 30
0.0
 10
966.367835616595
 20
111.5195369740988
 30
0.0
 10
975.934183070903
 20
125.3529825114182
 30
0.0
 10
995.9677710432261
 20
125.3529825114182
 30
0.0
 10
999.2030623477278
 20
125.3529825114182
 30
0.0
 10
1025.613181760262
 20
125.3529825114182
 30
0.0
 10
1029.587791043622
 20
125.3529825114182
 30
0.0
 10
1029.863743374035
 20
125.3529825114182
 30
0.0
 10
1029.932645329194
 20
125.1914074265698
 30
0.0
 10
1029.741442403628
 20
124.9922807761596
 30
0.0
 10
1029.741442403628
 20
124.9922807761596
 30
0.0
 10
1025.63385234681
 20
120.7134693607712
 30
0.0
 10
1025.63385234681
 20
120.7134693607712
 30
0.0
 10
1025.442649421243
 20
120.514342710361
 30
0.0
 10
1025.064033177643
 20
120.3527676255126
 30
0.0
 10
1024.787736337455
 20
120.3527676255126
 30
0.0
 10
1021.294407210881
 20
120.3527676255126
 30
0.0
 10
1000.542860865799
 20
120.3527676255126
 30
0.0
 10
995.9677710432261
 20
120.3527676255126
 30
0.0
 10
981.3677912547602
 20
120.3527676255126
 30
0.0
 10
970.1677784436267
 20
112.1527459420122
 30
0.0
 10
970.1677784436267
 20
106.3529238664837
 30
0.0
 10
970.1677784436267
 20
102.1530051897526
 30
0.0
 10
983.0011121018099
 20
101.952845010015
 30
0.0
 10
985.9676857811907
 20
101.952845010015
 30
0.0
 10
998.2790871290425
 20
101.952845010015
 30
0.0
 10
1005.02803363689
 20
106.5902911020073
 30
0.0
 10
1006.397459995679
 20
109.6832998691053
 30
0.0
 10
1006.509081163037
 20
109.9354810249881
 30
0.0
 10
1006.343371960879
 20
110.1528666935154
 30
0.0
 10
1006.067419630467
 20
110.1528666935154
 30
0.0
 10
1003.386444555221
 20
110.1528666935154
 30
0.0
 10
991.6424508081052
 20
110.1528666935154
 30
0.0
 10
989.0675847438046
 20
110.1528666935154
 30
0.0
 10
988.7916324133919
 20
110.1528666935154
 30
0.0
 10
988.7020598716848
 20
110.3320117769294
 30
0.0
 10
988.8677690738429
 20
110.5528425432148
 30
0.0
 10
988.8677690738429
 20
110.5528425432148
 30
0.0
 10
990.0676966229408
 20
112.1527459420122
 30
0.0
 10
990.0676966229408
 20
112.1527459420122
 30
0.0
 10
990.2334058250988
 20
112.3735767082975
 30
0.0
 10
990.5916959919268
 20
112.5527217917115
 30
0.0
 10
990.8679928321153
 20
112.5527217917115
 30
0.0
 10
990.8679928321153
 20
112.5527217917115
 30
0.0
 10
1028.667605432471
 20
112.5527217917115
 30
0.0
 10
1028.667605432471
 20
112.5527217917115
 30
0.0
 10
1028.943557762884
 20
112.5527217917115
 30
0.0
 10
1029.033130304591
 20
112.3735767082975
 30
0.0
 10
1028.867421102433
 20
112.1527459420122
 30
0.0
  0
SPLINE
  5
53
330
4D
100
AcDbEntity
  8
GT Stripes
370
     0
100
AcDbSpline
210
0.0
220
0.0
230
1.0
 70
    11
 71
     3
 72
    53
 73
    49
 74
     0
 42
0.0000000001
 43
0.0000000001
 40
0.0
 40
0.0
 40
0.0
 40
0.0
 40
1.0
 40
1.0
 40
1.0
 40
2.0
 40
2.0
 40
2.0
 40
3.0
 40
3.0
 40
3.0
 40
4.0
 40
4.0
 40
4.0
 40
5.0
 40
5.0
 40
5.0
 40
6.0
 40
6.0
 40
6.0
 40
7.0
 40
7.0
 40
7.0
 40
8.0
 40
8.0
 40
8.0
 40
9.0
 40
9.0
 40
9.0
 40
10.0
 40
10.0
 40
10.0
 40
11.0
 40
11.0
 40
11.0
 40
12.0
 40
12.0
 40
12.0
 40
13.0
 40
13.0
 40
13.0
 40
14.0
 40
14.0
 40
14.0
 40
15.0
 40
15.0
 40
15.0
 40
16.0
 40
16.0
 40
16.0
 40
16.0
 10
1040.467754273041
 20
100.3529416112176
 30
0.0
 10
1040.467754273041
 20
100.3529416112176
 30
0.0
 10
1033.467660138639
 20
100.3529416112176
 30
0.0
 10
1033.467660138639
 20
100.3529416112176
 30
0.0
 10
1033.191707808226
 20
100.3529416112176
 30
0.0
 10
1033.122805853067
 20
100.514516696066
 30
0.0
 10
1033.314008778634
 20
100.7136433464762
 30
0.0
 10
1033.314008778634
 20
100.7136433464762
 30
0.0
 10
1051.82141844418
 20
119.992065890254
 30
0.0
 10
1051.82141844418
 20
119.992065890254
 30
0.0
 10
1052.012621369747
 20
120.1911925406642
 30
0.0
 10
1051.943719414588
 20
120.3527676255126
 30
0.0
 10
1051.667767084175
 20
120.3527676255126
 30
0.0
 10
1051.667767084175
 20
120.3527676255126
 30
0.0
 10
1029.187470684147
 20
120.3527676255126
 30
0.0
 10
1029.187470684147
 20
120.3527676255126
 30
0.0
 10
1028.911518353735
 20
120.3527676255126
 30
0.0
 10
1028.842616398576
 20
120.514342710361
 30
0.0
 10
1029.033819324142
 20
120.7134693607712
 30
0.0
 10
1029.033819324142
 20
120.7134693607712
 30
0.0
 10
1033.14140938096
 20
124.9922807761596
 30
0.0
 10
1033.14140938096
 20
124.9922807761596
 30
0.0
 10
1033.332612306527
 20
125.1914074265698
 30
0.0
 10
1033.711573059903
 20
125.3529825114182
 30
0.0
 10
1033.987525390315
 20
125.3529825114182
 30
0.0
 10
1033.987525390315
 20
125.3529825114182
 30
0.0
 10
1086.867708916373
 20
125.3529825114182
 30
0.0
 10
1086.867708916373
 20
125.3529825114182
 30
0.0
 10
1087.143661246785
 20
125.3529825114182
 30
0.0
 10
1087.203261437998
 20
125.2007091905163
 30
0.0
 10
1087.00068968983
 20
125.0132958724832
 30
0.0
 10
1087.00068968983
 20
125.0132958724832
 30
0.0
 10
1082.334649286447
 20
120.6924542644476
 30
0.0
 10
1082.334649286447
 20
120.6924542644476
 30
0.0
 10
1082.132077538279
 20
120.5050409464145
 30
0.0
 10
1081.743815020956
 20
120.3527676255126
 30
0.0
 10
1081.467862690543
 20
120.3527676255126
 30
0.0
 10
1081.467862690543
 20
120.3527676255126
 30
0.0
 10
1060.667395957298
 20
120.3527676255126
 30
0.0
 10
1060.667395957298
 20
120.3527676255126
 30
0.0
 10
1060.391443626885
 20
120.3527676255126
 30
0.0
 10
1060.01248287351
 20
120.1911925406642
 30
0.0
 10
1059.821279947943
 20
119.992065890254
 30
0.0
 10
1059.821279947943
 20
119.992065890254
 30
0.0
 10
1041.313870282397
 20
100.7136433464762
 30
0.0
 10
1041.313870282397
 20
100.7136433464762
 30
0.0
 10
1041.12266735683
 20
100.514516696066
 30
0.0
 10
1040.743706603454
 20
100.3529416112176
 30
0.0
 10
1040.467754273041
 20
100.3529416112176
 30
0.0
  0
SPLINE
  5
54
330
4D
100
AcDbEntity
  8
GT Stripes
370
     0
100
AcDbSpline
210
0.0
220
0.0
230
1.0
 70
    11
 71
     3
 72
    56
 73
    52
 74
     0
 42
0.0000000001
 43
0.0000000001
 40
0.0
 40
0.0
 40
0.0
 40
0.0
 40
1.0
 40
1.0
 40
1.0
 40
2.0
 40
2.0
 40
2.0
 40
3.0
 40
3.0
 40
3.0
 40
4.0
 40
4.0
 40
4.0
 40
5.0
 40
5.0
 40
5.0
 40
6.0
 40
6.0
 40
6.0
 40
7.0
 40
7.0
 40
7.0
 40
8.0
 40
8.0
 40
8.0
 40
9.0
 40
9.0
 40
9.0
 40
10.0
 40
10.0
 40
10.0
 40
11.0
 40
11.0
 40
11.0
 40
12.0
 40
12.0
 40
12.0
 40
13.0
 40
13.0
 40
13.0
 40
14.0
 40
14.0
 40
14.0
 40
15.0
 40
15.0
 40
15.0
 40
16.0
 40
16.0
 40
16.0
 40
17.0
 40
17.0
 40
17.0
 40
17.0
 10
1066.060696497387
 20
100.2189273084329
 30
0.0
 10
1066.060696497387
 20
100.2189273084329
 30
0.0
 10
1047.93121405589
 20
100.2189273084329
 30
0.0
 10
1047.93121405589
 20
100.2189273084329
 30
0.0
 10
1047.93121405589
 20
100.2189273084329
 30
0.0
 10
1049.589339606797
 20
101.8908332503717
 30
0.0
 10
1050.418574637138
 20
102.726958476229
 30
0.0
 10
1055.392951289859
 20
107.7437098313728
 30
0.0
 10
1070.996832564995
 20
109.4159602830874
 30
0.0
 10
1072.654613606126
 20
111.088210734802
 30
0.0
 10
1073.483848636467
 20
111.9243359606593
 30
0.0
 10
1075.97086470794
 20
114.4323671284554
 30
0.0
 10
1076.800099738281
 20
115.2684923543127
 30
0.0
 10
1077.214544998564
 20
115.6867272221293
 30
0.0
 10
1076.931702472635
 20
116.10461758017
 30
0.0
 10
1076.2347591962
 20
116.10461758017
 30
0.0
 10
1074.840183623777
 20
116.10461758017
 30
0.0
 10
1072.051032478931
 20
116.10461758017
 30
0.0
 10
1070.656456906508
 20
116.10461758017
 30
0.0
 10
1069.958824610521
 20
116.10461758017
 30
0.0
 10
1068.847091564027
 20
115.6867272221293
 30
0.0
 10
1068.432646303744
 20
115.2684923543127
 30
0.0
 10
1067.603411273402
 20
114.4323671284554
 30
0.0
 10
1065.116739711706
 20
111.9243359606593
 30
0.0
 10
1065.116739711706
 20
111.9243359606593
 30
0.0
 10
1065.116739711706
 20
111.9243359606593
 30
0.0
 10
1059.538437422014
 20
111.9243359606593
 30
0.0
 10
1059.538437422014
 20
111.9243359606593
 30
0.0
 10
1059.538437422014
 20
111.9243359606593
 30
0.0
 10
1061.196218463145
 20
113.5962419025981
 30
0.0
 10
1062.854344014052
 20
115.2684923543127
 30
0.0
 10
1064.512469564959
 20
116.9407428060273
 30
0.0
 10
1068.130511230371
 20
117.7768680318846
 30
0.0
 10
1070.920006884992
 20
117.7768680318846
 30
0.0
 10
1073.709158029838
 20
117.7768680318846
 30
0.0
 10
1075.103389092485
 20
117.7768680318846
 30
0.0
 10
1079.287115809754
 20
117.7768680318846
 30
0.0
 10
1083.470842527022
 20
117.7768680318846
 30
0.0
 10
1084.03652757888
 20
116.9407428060273
 30
0.0
 10
1082.378402027973
 20
115.2684923543127
 30
0.0
 10
1080.720276477066
 20
113.5962419025981
 30
0.0
 10
1079.891041446724
 20
112.7604611865166
 30
0.0
 10
1079.062150926159
 20
111.9243359606593
 30
0.0
 10
1075.745555314569
 20
108.5798350572301
 30
0.0
 10
1059.312783518868
 20
106.0714593796582
 30
0.0
 10
1055.99687692683
 20
102.726958476229
 30
0.0
 10
1057.391452499252
 20
102.726958476229
 30
0.0
 10
1068.548057078636
 20
102.726958476229
 30
0.0
 10
1068.548057078636
 20
102.726958476229
 30
0.0
 10
1068.548057078636
 20
102.726958476229
 30
0.0
 10
1066.060696497387
 20
100.2189273084329
 30
0.0
 10
1066.060696497387
 20
100.2189273084329
 30
0.0
  0
SPLINE
  5
55
330
4D
100
AcDbEntity
  8
GT Stripes
370
     0
100
AcDbSpline
210
0.0
220
0.0
230
1.0
 70
    11
 71
     3
 72
    29
 73
    25
 74
     0
 42
0.0000000001
 43
0.0000000001
 40
0.0
 40
0.0
 40
0.0
 40
0.0
 40
1.0
 40
1.0
 40
1.0
 40
2.0
 40
2.0
 40
2.0
 40
3.0
 40
3.0
 40
3.0
 40
4.0
 40
4.0
 40
4.0
 40
5.0
 40
5.0
 40
5.0
 40
6.0
 40
6.0
 40
6.0
 40
7.0
 40
7.0
 40
7.0
 40
8.0
 40
8.0
 40
8.0
 40
8.0
 10
1080.006452221616
 20
100.2189273084329
 30
0.0
 10
1080.006452221616
 20
100.2189273084329
 30
0.0
 10
1070.244423214656
 20
100.2189273084329
 30
0.0
 10
1070.244423214656
 20
100.2189273084329
 30
0.0
 10
1069.474099355976
 20
100.2189273084329
 30
0.0
 10
1069.220884670765
 20
100.5930649249475
 30
0.0
 10
1069.678738162798
 20
101.0547080245144
 30
0.0
 10
1069.678738162798
 20
101.0547080245144
 30
0.0
 10
1078.798600947675
 20
110.2520855089447
 30
0.0
 10
1078.798600947675
 20
110.2520855089447
 30
0.0
 10
1080.172161423774
 20
111.6373593174211
 30
0.0
 10
1083.158716670151
 20
112.7604611865166
 30
0.0
 10
1085.469343736416
 20
112.7604611865166
 30
0.0
 10
1085.469343736416
 20
112.7604611865166
 30
0.0
 10
1095.231372743376
 20
112.7604611865166
 30
0.0
 10
1095.231372743376
 20
112.7604611865166
 30
0.0
 10
1096.001352092281
 20
112.7604611865166
 30
0.0
 10
1096.254566777491
 20
112.3859790602262
 30
0.0
 10
1095.796713285458
 20
111.9243359606593
 30
0.0
 10
1095.796713285458
 20
111.9243359606593
 30
0.0
 10
1086.677195010357
 20
102.726958476229
 30
0.0
 10
1086.677195010357
 20
102.726958476229
 30
0.0
 10
1085.303634534258
 20
101.3416846677526
 30
0.0
 10
1082.316734778105
 20
100.2189273084329
 30
0.0
 10
1080.006452221616
 20
100.2189273084329
 30
0.0
  0
SPLINE
  5
56
330
4D
100
AcDbEntity
  8
GT Stripes
370
     0
100
AcDbSpline
210
0.0
220
0.0
230
1.0
 70
    11
 71
     3
 72
    29
 73
    25
 74
     0
 42
0.0000000001
 43
0.0000000001
 40
0.0
 40
0.0
 40
0.0
 40
0.0
 40
1.0
 40
1.0
 40
1.0
 40
2.0
 40
2.0
 40
2.0
 40
3.0
 40
3.0
 40
3.0
 40
4.0
 40
4.0
 40
4.0
 40
5.0
 40
5.0
 40
5.0
 40
6.0
 40
6.0
 40
6.0
 40
7.0
 40
7.0
 40
7.0
 40
8.0
 40
8.0
 40
8.0
 40
8.0
 10
1098.135590153338
 20
100.2189273084329
 30
0.0
 10
1098.135590153338
 20
100.2189273084329
 30
0.0
 10
1088.373561146378
 20
100.2189273084329
 30
0.0
 10
1088.373561146378
 20
100.2189273084329
 30
0.0
 10
1087.603581797473
 20
100.2189273084329
 30
0.0
 10
1087.350367112263
 20
100.5930649249475
 30
0.0
 10
1087.808220604296
 20
101.0547080245144
 30
0.0
 10
1087.808220604296
 20
101.0547080245144
 30
0.0
 10
1096.927738879396
 20
110.2520855089447
 30
0.0
 10
1096.927738879396
 20
110.2520855089447
 30
0.0
 10
1098.301299355496
 20
111.6373593174211
 30
0.0
 10
1101.288199111649
 20
112.7604611865166
 30
0.0
 10
1103.598826177913
 20
112.7604611865166
 30
0.0
 10
1103.598826177913
 20
112.7604611865166
 30
0.0
 10
1113.360510675098
 20
112.7604611865166
 30
0.0
 10
1113.360510675098
 20
112.7604611865166
 30
0.0
 10
1114.130834533778
 20
112.7604611865166
 30
0.0
 10
1114.384049218988
 20
112.3859790602262
 30
0.0
 10
1113.926195726955
 20
111.9243359606593
 30
0.0
 10
1113.926195726955
 20
111.9243359606593
 30
0.0
 10
1104.806677451855
 20
102.726958476229
 30
0.0
 10
1104.806677451855
 20
102.726958476229
 30
0.0
 10
1103.433116975756
 20
101.3416846677526
 30
0.0
 10
1100.446217219603
 20
100.2189273084329
 30
0.0
 10
1098.135590153338
 20
100.2189273084329
 30
0.0
  0
SPLINE
  5
57
330
4D
100
AcDbEntity
  8
GT Stripes
370
     0
100
AcDbSpline
210
0.0
220
0.0
230
1.0
 70
    11
 71
     3
 72
    29
 73
    25
 74
     0
 42
0.0000000001
 43
0.0000000001
 40
0.0
 40
0.0
 40
0.0
 40
0.0
 40
1.0
 40
1.0
 40
1.0
 40
2.0
 40
2.0
 40
2.0
 40
3.0
 40
3.0
 40
3.0
 40
4.0
 40
4.0
 40
4.0
 40
5.0
 40
5.0
 40
5.0
 40
6.0
 40
6.0
 40
6.0
 40
7.0
 40
7.0
 40
7.0
 40
8.0
 40
8.0
 40
8.0
 40
8.0
 10
1132.055678168453
 20
111.9243359606593
 30
0.0
 10
1132.055678168453
 20
111.9243359606593
 30
0.0
 10
1122.935815383577
 20
102.726958476229
 30
0.0
 10
1122.935815383577
 20
102.726958476229
 30
0.0
 10
1121.562254907477
 20
101.3416846677526
 30
0.0
 10
1118.5756996611
 20
100.2189273084329
 30
0.0
 10
1116.26472808506
 20
100.2189273084329
 30
0.0
 10
1116.26472808506
 20
100.2189273084329
 30
0.0
 10
1106.503043587875
 20
100.2189273084329
 30
0.0
 10
1106.503043587875
 20
100.2189273084329
 30
0.0
 10
1105.732719729195
 20
100.2189273084329
 30
0.0
 10
1105.479505043985
 20
100.5930649249475
 30
0.0
 10
1105.937703045794
 20
101.0547080245144
 30
0.0
 10
1105.937703045794
 20
101.0547080245144
 30
0.0
 10
1115.057221320894
 20
110.2520855089447
 30
0.0
 10
1115.057221320894
 20
110.2520855089447
 30
0.0
 10
1116.430781796993
 20
111.6373593174211
 30
0.0
 10
1119.41733704337
 20
112.7604611865166
 30
0.0
 10
1121.727964109635
 20
112.7604611865166
 30
0.0
 10
1121.727964109635
 20
112.7604611865166
 30
0.0
 10
1131.489993116596
 20
112.7604611865166
 30
0.0
 10
1131.489993116596
 20
112.7604611865166
 30
0.0
 10
1132.260316975276
 20
112.7604611865166
 30
0.0
 10
1132.513531660486
 20
112.3859790602262
 30
0.0
 10
1132.055678168453
 20
111.9243359606593
 30
0.0
  0
ENDBLK
  5
50
330
4D
100
AcDbEntity
  8
0
100
AcDbBlockEnd
  0
BLOCK
  5
5B
330
59
100
AcDbEntity
  8
0
100
AcDbBlockBegin
  2
block 6
 70
     0
 71
     0
 10
0.0
 20
0.0
 30
0.0
  3
block 6
  1

  0
INSERT
  5
5E
330
59
100
AcDbEntity
  8
GT Stripes
100
AcDbBlockReference
  2
block 7
 10
0.0
 20
0.0
 30
0.0
  0
ENDBLK
  5
5C
330
59
100
AcDbEntity
  8
0
100
AcDbBlockEnd
  0
BLOCK
  5
5F
330
5D
100
AcDbEntity
  8
0
100
AcDbBlockBegin
  2
block 7
 70
     0
 71
     0
 10
0.0
 20
0.0
 30
0.0
  3
block 7
  1

  0
SPLINE
  5
61
330
5D
100
AcDbEntity
  8
GT Stripes
370
     0
100
AcDbSpline
210
0.0
220
0.0
230
1.0
 70
    11
 71
     3
 72
    29
 73
    25
 74
     0
 42
0.0000000001
 43
0.0000000001
 40
0.0
 40
0.0
 40
0.0
 40
0.0
 40
1.0
 40
1.0
 40
1.0
 40
2.0
 40
2.0
 40
2.0
 40
3.0
 40
3.0
 40
3.0
 40
4.0
 40
4.0
 40
4.0
 40
5.0
 40
5.0
 40
5.0
 40
6.0
 40
6.0
 40
6.0
 40
7.0
 40
7.0
 40
7.0
 40
8.0
 40
8.0
 40
8.0
 40
8.0
 10
776.6318326750614
 20
133.3469873489925
 30
0.0
 10
776.6318326750614
 20
133.3469873489925
 30
0.0
 10
534.0325271864847
 20
133.3469873489925
 30
0.0
 10
534.0325271864847
 20
133.3469873489925
 30
0.0
 10
532.9278565903942
 20
133.3469873489925
 30
0.0
 10
531.7594516857815
 20
132.494325653897
 30
0.0
 10
531.4228656348287
 20
131.4421927986155
 30
0.0
 10
531.4228656348287
 20
131.4421927986155
 30
0.0
 10
520.4845079984124
 20
97.26337794187758
 30
0.0
 10
520.4845079984124
 20
97.26337794187758
 30
0.0
 10
520.1477496925717
 20
96.21124508659608
 30
0.0
 10
520.7702788574353
 20
95.35858339150056
 30
0.0
 10
521.8749494535257
 20
95.35858339150056
 30
0.0
 10
521.8749494535257
 20
95.35858339150056
 30
0.0
 10
768.318467275324
 20
95.35858339150056
 30
0.0
 10
768.318467275324
 20
95.35858339150056
 30
0.0
 10
769.4233101263023
 20
95.35858339150056
 30
0.0
 10
770.5098939591635
 20
96.23329371224703
 30
0.0
 10
770.7462276653597
 20
97.31229833004063
 30
0.0
 10
770.7462276653597
 20
97.31229833004063
 30
0.0
 10
778.2045198015709
 20
131.3932724104524
 30
0.0
 10
778.2045198015709
 20
131.3932724104524
 30
0.0
 10
778.4405089979913
 20
132.472277028246
 30
0.0
 10
777.7366755260397
 20
133.3469873489925
 30
0.0
 10
776.6318326750614
 20
133.3469873489925
 30
0.0
  0
SPLINE
  5
62
330
5D
100
AcDbEntity
  8
GT Stripes
370
     0
100
AcDbSpline
210
0.0
220
0.0
230
1.0
 70
    11
 71
     3
 72
    83
 73
    79
 74
     0
 42
0.0000000001
 43
0.0000000001
 40
0.0
 40
0.0
 40
0.0
 40
0.0
 40
1.0
 40
1.0
 40
1.0
 40
2.0
 40
2.0
 40
2.0
 40
3.0
 40
3.0
 40
3.0
 40
4.0
 40
4.0
 40
4.0
 40
5.0
 40
5.0
 40
5.0
 40
6.0
 40
6.0
 40
6.0
 40
7.0
 40
7.0
 40
7.0
 40
8.0
 40
8.0
 40
8.0
 40
9.0
 40
9.0
 40
9.0
 40
10.0
 40
10.0
 40
10.0
 40
11.0
 40
11.0
 40
11.0
 40
12.0
 40
12.0
 40
12.0
 40
13.0
 40
13.0
 40
13.0
 40
14.0
 40
14.0
 40
14.0
 40
15.0
 40
15.0
 40
15.0
 40
16.0
 40
16.0
 40
16.0
 40
17.0
 40
17.0
 40
17.0
 40
18.0
 40
18.0
 40
18.0
 40
19.0
 40
19.0
 40
19.0
 40
20.0
 40
20.0
 40
20.0
 40
21.0
 40
21.0
 40
21.0
 40
22.0
 40
22.0
 40
22.0
 40
23.0
 40
23.0
 40
23.0
 40
24.0
 40
24.0
 40
24.0
 40
25.0
 40
25.0
 40
25.0
 40
26.0
 40
26.0
 40
26.0
 40
26.0
 10
669.1254900792121
 20
112.1527459420122
 30
0.0
 10
669.1254900792121
 20
112.1527459420122
 30
0.0
 10
667.9259070398899
 20
110.5528425432148
 30
0.0
 10
667.9259070398899
 20
110.5528425432148
 30
0.0
 10
667.7605423475077
 20
110.3320117769294
 30
0.0
 10
667.4015631611281
 20
110.1528666935154
 30
0.0
 10
667.1259553404911
 20
110.1528666935154
 30
0.0
 10
667.1259553404911
 20
110.1528666935154
 30
0.0
 10
658.5256132975156
 20
110.1528666935154
 30
0.0
 10
658.5256132975156
 20
110.1528666935154
 30
0.0
 10
658.249316457327
 20
110.1528666935154
 30
0.0
 10
657.875867860364
 20
109.9868129815817
 30
0.0
 10
657.6905216009857
 20
109.7821741747588
 30
0.0
 10
657.6905216009857
 20
109.7821741747588
 30
0.0
 10
650.7610519706216
 20
102.1233773490341
 30
0.0
 10
650.7610519706216
 20
102.1233773490341
 30
0.0
 10
650.5763947307948
 20
101.9187385422112
 30
0.0
 10
650.2222386812764
 20
101.8457024697424
 30
0.0
 10
649.9707465449451
 20
101.9587016762036
 30
0.0
 10
649.0074972118191
 20
102.3914059546035
 30
0.0
 10
647.910578085684
 20
102.8527045443946
 30
0.0
 10
647.2256926514012
 20
102.8527045443946
 30
0.0
 10
645.3164194739389
 20
102.8527045443946
 30
0.0
 10
642.47834794093
 20
101.8370897253475
 30
0.0
 10
640.4257586967365
 20
101.1528933106163
 30
0.0
 10
636.398783927455
 20
99.81068322411444
 30
0.0
 10
631.4261298236132
 20
99.15266955234377
 30
0.0
 10
626.2247212286426
 20
99.15266955234377
 30
0.0
 10
620.6581322713281
 20
99.15266955234377
 30
0.0
 10
606.6248710640469
 20
100.1193639832278
 30
0.0
 10
606.6248710640469
 20
106.3529238664837
 30
0.0
 10
606.6248710640469
 20
111.5195369740988
 30
0.0
 10
616.191218518355
 20
125.3529825114182
 30
0.0
 10
636.224806490678
 20
125.3529825114182
 30
0.0
 10
636.224806490678
 20
125.3529825114182
 30
0.0
 10
669.8462045301777
 20
125.3529825114182
 30
0.0
 10
669.8462045301777
 20
125.3529825114182
 30
0.0
 10
670.1218123508146
 20
125.3529825114182
 30
0.0
 10
670.1907143059739
 20
125.1914074265698
 30
0.0
 10
669.9998558901829
 20
124.9922807761596
 30
0.0
 10
669.9998558901829
 20
124.9922807761596
 30
0.0
 10
665.8919213235893
 20
120.7134693607712
 30
0.0
 10
665.8919213235893
 20
120.7134693607712
 30
0.0
 10
665.7003738882466
 20
120.514342710361
 30
0.0
 10
665.3221021544224
 20
120.3527676255126
 30
0.0
 10
665.0458053142339
 20
120.3527676255126
 30
0.0
 10
665.0458053142339
 20
120.3527676255126
 30
0.0
 10
636.224806490678
 20
120.3527676255126
 30
0.0
 10
636.224806490678
 20
120.3527676255126
 30
0.0
 10
621.6248267022122
 20
120.3527676255126
 30
0.0
 10
610.4248138910788
 20
112.1527459420122
 30
0.0
 10
610.4248138910788
 20
106.3529238664837
 30
0.0
 10
610.4248138910788
 20
102.1530051897526
 30
0.0
 10
623.2581475492618
 20
101.952845010015
 30
0.0
 10
626.2247212286426
 20
101.952845010015
 30
0.0
 10
638.536811596046
 20
101.952845010015
 30
0.0
 10
645.2861026136688
 20
106.5902911020073
 30
0.0
 10
646.6558734822344
 20
109.6832998691053
 30
0.0
 10
646.7674946495923
 20
109.9354810249881
 30
0.0
 10
646.6014409376586
 20
110.1528666935154
 30
0.0
 10
646.3258331170217
 20
110.1528666935154
 30
0.0
 10
646.3258331170217
 20
110.1528666935154
 30
0.0
 10
629.3246201912565
 20
110.1528666935154
 30
0.0
 10
629.3246201912565
 20
110.1528666935154
 30
0.0
 10
629.0486678608438
 20
110.1528666935154
 30
0.0
 10
628.958750809361
 20
110.3320117769294
 30
0.0
 10
629.1248045212948
 20
110.5528425432148
 30
0.0
 10
629.1248045212948
 20
110.5528425432148
 30
0.0
 10
630.3247320703928
 20
112.1527459420122
 30
0.0
 10
630.3247320703928
 20
112.1527459420122
 30
0.0
 10
630.4904412725508
 20
112.3735767082975
 30
0.0
 10
630.8487314393788
 20
112.5527217917115
 30
0.0
 10
631.1246837697915
 20
112.5527217917115
 30
0.0
 10
631.1246837697915
 20
112.5527217917115
 30
0.0
 10
668.9256744092504
 20
112.5527217917115
 30
0.0
 10
668.9256744092504
 20
112.5527217917115
 30
0.0
 10
669.2019712494389
 20
112.5527217917115
 30
0.0
 10
669.2915437911458
 20
112.3735767082975
 30
0.0
 10
669.1254900792121
 20
112.1527459420122
 30
0.0
  0
SPLINE
  5
63
330
5D
100
AcDbEntity
  8
GT Stripes
370
     0
100
AcDbSpline
210
0.0
220
0.0
230
1.0
 70
    11
 71
     3
 72
    53
 73
    49
 74
     0
 42
0.0000000001
 43
0.0000000001
 40
0.0
 40
0.0
 40
0.0
 40
0.0
 40
1.0
 40
1.0
 40
1.0
 40
2.0
 40
2.0
 40
2.0
 40
3.0
 40
3.0
 40
3.0
 40
4.0
 40
4.0
 40
4.0
 40
5.0
 40
5.0
 40
5.0
 40
6.0
 40
6.0
 40
6.0
 40
7.0
 40
7.0
 40
7.0
 40
8.0
 40
8.0
 40
8.0
 40
9.0
 40
9.0
 40
9.0
 40
10.0
 40
10.0
 40
10.0
 40
11.0
 40
11.0
 40
11.0
 40
12.0
 40
12.0
 40
12.0
 40
13.0
 40
13.0
 40
13.0
 40
14.0
 40
14.0
 40
14.0
 40
15.0
 40
15.0
 40
15.0
 40
16.0
 40
16.0
 40
16.0
 40
16.0
 10
727.2556580786271
 20
125.0132958724832
 30
0.0
 10
727.2556580786271
 20
125.0132958724832
 30
0.0
 10
722.5896176752437
 20
120.6924542644476
 30
0.0
 10
722.5896176752437
 20
120.6924542644476
 30
0.0
 10
722.3870459270756
 20
120.5050409464145
 30
0.0
 10
721.9991279195291
 20
120.3527676255126
 30
0.0
 10
721.7228310793406
 20
120.3527676255126
 30
0.0
 10
721.7228310793406
 20
120.3527676255126
 30
0.0
 10
700.9220198363196
 20
120.3527676255126
 30
0.0
 10
700.9220198363196
 20
120.3527676255126
 30
0.0
 10
700.6464120156826
 20
120.3527676255126
 30
0.0
 10
700.2674512623068
 20
120.1911925406642
 30
0.0
 10
700.0765928465157
 20
119.992065890254
 30
0.0
 10
700.0765928465157
 20
119.992065890254
 30
0.0
 10
681.5688386711939
 20
100.7136433464762
 30
0.0
 10
681.5688386711939
 20
100.7136433464762
 30
0.0
 10
681.3772912358513
 20
100.514516696066
 30
0.0
 10
680.9990195020271
 20
100.3529416112176
 30
0.0
 10
680.7227226618386
 20
100.3529416112176
 30
0.0
 10
680.7227226618386
 20
100.3529416112176
 30
0.0
 10
673.7257291154184
 20
100.3529416112176
 30
0.0
 10
673.7257291154184
 20
100.3529416112176
 30
0.0
 10
673.4494322752298
 20
100.3529416112176
 30
0.0
 10
673.3805303200706
 20
100.514516696066
 30
0.0
 10
673.5713887358617
 20
100.7136433464762
 30
0.0
 10
673.5713887358617
 20
100.7136433464762
 30
0.0
 10
692.076386832977
 20
119.992065890254
 30
0.0
 10
692.076386832977
 20
119.992065890254
 30
0.0
 10
692.2679342683198
 20
120.1911925406642
 30
0.0
 10
692.1990323131605
 20
120.3527676255126
 30
0.0
 10
691.922735472972
 20
120.3527676255126
 30
0.0
 10
691.922735472972
 20
120.3527676255126
 30
0.0
 10
669.4458841707026
 20
120.3527676255126
 30
0.0
 10
669.4458841707026
 20
120.3527676255126
 30
0.0
 10
669.169587330514
 20
120.3527676255126
 30
0.0
 10
669.1006853753548
 20
120.514342710361
 30
0.0
 10
669.2915437911458
 20
120.7134693607712
 30
0.0
 10
669.2915437911458
 20
120.7134693607712
 30
0.0
 10
673.3991338479636
 20
124.9922807761596
 30
0.0
 10
673.3991338479636
 20
124.9922807761596
 30
0.0
 10
673.5906812833063
 20
125.1914074265698
 30
0.0
 10
673.9696420366821
 20
125.3529825114182
 30
0.0
 10
674.245249857319
 20
125.3529825114182
 30
0.0
 10
674.245249857319
 20
125.3529825114182
 30
0.0
 10
727.1226773051698
 20
125.3529825114182
 30
0.0
 10
727.1226773051698
 20
125.3529825114182
 30
0.0
 10
727.3989741453582
 20
125.3529825114182
 30
0.0
 10
727.4582298267952
 20
125.2007091905163
 30
0.0
 10
727.2556580786271
 20
125.0132958724832
 30
0.0
  0
HATCH
  5
64
330
5D
100
AcDbEntity
  8
GT Stripes
 62
   250
420
  2235935
100
AcDbHatch
 10
0.0
 20
0.0
 30
0.0
210
0.0
220
0.0
230
1.0
  2
SOLID
 70
     1
 71
     0
 91
        3
 92
        1
 93
        1
 72
     4
 94
        3
 73
     0
 74
     1
 95
       29
 96
       25
 40
0.0
 40
0.0
 40
0.0
 40
0.0
 40
1.0
 40
1.0
 40
1.0
 40
2.0
 40
2.0
 40
2.0
 40
3.0
 40
3.0
 40
3.0
 40
4.0
 40
4.0
 40
4.0
 40
5.0
 40
5.0
 40
5.0
 40
6.0
 40
6.0
 40
6.0
 40
7.0
 40
7.0
 40
7.0
 40
8.0
 40
8.0
 40
8.0
 40
8.0
 10
776.6318326750614
 20
133.3469873489925
 10
776.6318326750614
 20
133.3469873489925
 10
534.0325271864847
 20
133.3469873489925
 10
534.0325271864847
 20
133.3469873489925
 10
532.9278565903942
 20
133.3469873489925
 10
531.7594516857815
 20
132.494325653897
 10
531.4228656348287
 20
131.4421927986155
 10
531.4228656348287
 20
131.4421927986155
 10
520.4845079984124
 20
97.26337794187758
 10
520.4845079984124
 20
97.26337794187758
 10
520.1477496925717
 20
96.21124508659608
 10
520.7702788574353
 20
95.35858339150056
 10
521.8749494535257
 20
95.35858339150056
 10
521.8749494535257
 20
95.35858339150056
 10
768.318467275324
 20
95.35858339150056
 10
768.318467275324
 20
95.35858339150056
 10
769.4233101263023
 20
95.35858339150056
 10
770.5098939591635
 20
96.23329371224703
 10
770.7462276653597
 20
97.31229833004063
 10
770.7462276653597
 20
97.31229833004063
 10
778.2045198015709
 20
131.3932724104524
 10
778.2045198015709
 20
131.3932724104524
 10
778.4405089979913
 20
132.472277028246
 10
777.7366755260397
 20
133.3469873489925
 10
776.6318326750614
 20
133.3469873489925
 97
        0
 92
        1
 93
        1
 72
     4
 94
        3
 73
     0
 74
     1
 95
       83
 96
       79
 40
0.0
 40
0.0
 40
0.0
 40
0.0
 40
1.0
 40
1.0
 40
1.0
 40
2.0
 40
2.0
 40
2.0
 40
3.0
 40
3.0
 40
3.0
 40
4.0
 40
4.0
 40
4.0
 40
5.0
 40
5.0
 40
5.0
 40
6.0
 40
6.0
 40
6.0
 40
7.0
 40
7.0
 40
7.0
 40
8.0
 40
8.0
 40
8.0
 40
9.0
 40
9.0
 40
9.0
 40
10.0
 40
10.0
 40
10.0
 40
11.0
 40
11.0
 40
11.0
 40
12.0
 40
12.0
 40
12.0
 40
13.0
 40
13.0
 40
13.0
 40
14.0
 40
14.0
 40
14.0
 40
15.0
 40
15.0
 40
15.0
 40
16.0
 40
16.0
 40
16.0
 40
17.0
 40
17.0
 40
17.0
 40
18.0
 40
18.0
 40
18.0
 40
19.0
 40
19.0
 40
19.0
 40
20.0
 40
20.0
 40
20.0
 40
21.0
 40
21.0
 40
21.0
 40
22.0
 40
22.0
 40
22.0
 40
23.0
 40
23.0
 40
23.0
 40
24.0
 40
24.0
 40
24.0
 40
25.0
 40
25.0
 40
25.0
 40
26.0
 40
26.0
 40
26.0
 40
26.0
 10
669.1254900792121
 20
112.1527459420122
 10
669.1254900792121
 20
112.1527459420122
 10
667.9259070398899
 20
110.5528425432148
 10
667.9259070398899
 20
110.5528425432148
 10
667.7605423475077
 20
110.3320117769294
 10
667.4015631611281
 20
110.1528666935154
 10
667.1259553404911
 20
110.1528666935154
 10
667.1259553404911
 20
110.1528666935154
 10
658.5256132975156
 20
110.1528666935154
 10
658.5256132975156
 20
110.1528666935154
 10
658.249316457327
 20
110.1528666935154
 10
657.875867860364
 20
109.9868129815817
 10
657.6905216009857
 20
109.7821741747588
 10
657.6905216009857
 20
109.7821741747588
 10
650.7610519706216
 20
102.1233773490341
 10
650.7610519706216
 20
102.1233773490341
 10
650.5763947307948
 20
101.9187385422112
 10
650.2222386812764
 20
101.8457024697424
 10
649.9707465449451
 20
101.9587016762036
 10
649.0074972118191
 20
102.3914059546035
 10
647.910578085684
 20
102.8527045443946
 10
647.2256926514012
 20
102.8527045443946
 10
645.3164194739389
 20
102.8527045443946
 10
642.47834794093
 20
101.8370897253475
 10
640.4257586967365
 20
101.1528933106163
 10
636.398783927455
 20
99.81068322411444
 10
631.4261298236132
 20
99.15266955234377
 10
626.2247212286426
 20
99.15266955234377
 10
620.6581322713281
 20
99.15266955234377
 10
606.6248710640469
 20
100.1193639832278
 10
606.6248710640469
 20
106.3529238664837
 10
606.6248710640469
 20
111.5195369740988
 10
616.191218518355
 20
125.3529825114182
 10
636.224806490678
 20
125.3529825114182
 10
636.224806490678
 20
125.3529825114182
 10
669.8462045301777
 20
125.3529825114182
 10
669.8462045301777
 20
125.3529825114182
 10
670.1218123508146
 20
125.3529825114182
 10
670.1907143059739
 20
125.1914074265698
 10
669.9998558901829
 20
124.9922807761596
 10
669.9998558901829
 20
124.9922807761596
 10
665.8919213235893
 20
120.7134693607712
 10
665.8919213235893
 20
120.7134693607712
 10
665.7003738882466
 20
120.514342710361
 10
665.3221021544224
 20
120.3527676255126
 10
665.0458053142339
 20
120.3527676255126
 10
665.0458053142339
 20
120.3527676255126
 10
636.224806490678
 20
120.3527676255126
 10
636.224806490678
 20
120.3527676255126
 10
621.6248267022122
 20
120.3527676255126
 10
610.4248138910788
 20
112.1527459420122
 10
610.4248138910788
 20
106.3529238664837
 10
610.4248138910788
 20
102.1530051897526
 10
623.2581475492618
 20
101.952845010015
 10
626.2247212286426
 20
101.952845010015
 10
638.536811596046
 20
101.952845010015
 10
645.2861026136688
 20
106.5902911020073
 10
646.6558734822344
 20
109.6832998691053
 10
646.7674946495923
 20
109.9354810249881
 10
646.6014409376586
 20
110.1528666935154
 10
646.3258331170217
 20
110.1528666935154
 10
646.3258331170217
 20
110.1528666935154
 10
629.3246201912565
 20
110.1528666935154
 10
629.3246201912565
 20
110.1528666935154
 10
629.0486678608438
 20
110.1528666935154
 10
628.958750809361
 20
110.3320117769294
 10
629.1248045212948
 20
110.5528425432148
 10
629.1248045212948
 20
110.5528425432148
 10
630.3247320703928
 20
112.1527459420122
 10
630.3247320703928
 20
112.1527459420122
 10
630.4904412725508
 20
112.3735767082975
 10
630.8487314393788
 20
112.5527217917115
 10
631.1246837697915
 20
112.5527217917115
 10
631.1246837697915
 20
112.5527217917115
 10
668.9256744092504
 20
112.5527217917115
 10
668.9256744092504
 20
112.5527217917115
 10
669.2019712494389
 20
112.5527217917115
 10
669.2915437911458
 20
112.3735767082975
 10
669.1254900792121
 20
112.1527459420122
 97
        0
 92
        1
 93
        1
 72
     4
 94
        3
 73
     0
 74
     1
 95
       53
 96
       49
 40
0.0
 40
0.0
 40
0.0
 40
0.0
 40
1.0
 40
1.0
 40
1.0
 40
2.0
 40
2.0
 40
2.0
 40
3.0
 40
3.0
 40
3.0
 40
4.0
 40
4.0
 40
4.0
 40
5.0
 40
5.0
 40
5.0
 40
6.0
 40
6.0
 40
6.0
 40
7.0
 40
7.0
 40
7.0
 40
8.0
 40
8.0
 40
8.0
 40
9.0
 40
9.0
 40
9.0
 40
10.0
 40
10.0
 40
10.0
 40
11.0
 40
11.0
 40
11.0
 40
12.0
 40
12.0
 40
12.0
 40
13.0
 40
13.0
 40
13.0
 40
14.0
 40
14.0
 40
14.0
 40
15.0
 40
15.0
 40
15.0
 40
16.0
 40
16.0
 40
16.0
 40
16.0
 10
727.2556580786271
 20
125.0132958724832
 10
727.2556580786271
 20
125.0132958724832
 10
722.5896176752437
 20
120.6924542644476
 10
722.5896176752437
 20
120.6924542644476
 10
722.3870459270756
 20
120.5050409464145
 10
721.9991279195291
 20
120.3527676255126
 10
721.7228310793406
 20
120.3527676255126
 10
721.7228310793406
 20
120.3527676255126
 10
700.9220198363196
 20
120.3527676255126
 10
700.9220198363196
 20
120.3527676255126
 10
700.6464120156826
 20
120.3527676255126
 10
700.2674512623068
 20
120.1911925406642
 10
700.0765928465157
 20
119.992065890254
 10
700.0765928465157
 20
119.992065890254
 10
681.5688386711939
 20
100.7136433464762
 10
681.5688386711939
 20
100.7136433464762
 10
681.3772912358513
 20
100.514516696066
 10
680.9990195020271
 20
100.3529416112176
 10
680.7227226618386
 20
100.3529416112176
 10
680.7227226618386
 20
100.3529416112176
 10
673.7257291154184
 20
100.3529416112176
 10
673.7257291154184
 20
100.3529416112176
 10
673.4494322752298
 20
100.3529416112176
 10
673.3805303200706
 20
100.514516696066
 10
673.5713887358617
 20
100.7136433464762
 10
673.5713887358617
 20
100.7136433464762
 10
692.076386832977
 20
119.992065890254
 10
692.076386832977
 20
119.992065890254
 10
692.2679342683198
 20
120.1911925406642
 10
692.1990323131605
 20
120.3527676255126
 10
691.922735472972
 20
120.3527676255126
 10
691.922735472972
 20
120.3527676255126
 10
669.4458841707026
 20
120.3527676255126
 10
669.4458841707026
 20
120.3527676255126
 10
669.169587330514
 20
120.3527676255126
 10
669.1006853753548
 20
120.514342710361
 10
669.2915437911458
 20
120.7134693607712
 10
669.2915437911458
 20
120.7134693607712
 10
673.3991338479636
 20
124.9922807761596
 10
673.3991338479636
 20
124.9922807761596
 10
673.5906812833063
 20
125.1914074265698
 10
673.9696420366821
 20
125.3529825114182
 10
674.245249857319
 20
125.3529825114182
 10
674.245249857319
 20
125.3529825114182
 10
727.1226773051698
 20
125.3529825114182
 10
727.1226773051698
 20
125.3529825114182
 10
727.3989741453582
 20
125.3529825114182
 10
727.4582298267952
 20
125.2007091905163
 10
727.2556580786271
 20
125.0132958724832
 97
        0
 75
     0
 76
     1
 98
        0
  0
ENDBLK
  5
60
330
5D
100
AcDbEntity
  8
0
100
AcDbBlockEnd
  0
BLOCK
  5
6D
330
6B
100
AcDbEntity
  8
0
100
AcDbBlockBegin
  2
block 8
 70
     0
 71
     0
 10
0.0
 20
0.0
 30
0.0
  3
block 8
  1

  0
INSERT
  5
70
330
6B
100
AcDbEntity
  8
GT Stripes
100
AcDbBlockReference
  2
block 9
 10
0.0
 20
0.0
 30
0.0
  0
ENDBLK
  5
6E
330
6B
100
AcDbEntity
  8
0
100
AcDbBlockEnd
  0
BLOCK
  5
71
330
6F
100
AcDbEntity
  8
0
100
AcDbBlockBegin
  2
block 9
 70
     0
 71
     0
 10
0.0
 20
0.0
 30
0.0
  3
block 9
  1

  0
SPLINE
  5
73
330
6F
100
AcDbEntity
  8
GT Stripes
370
     0
100
AcDbSpline
210
0.0
220
0.0
230
1.0
 70
    11
 71
     3
 72
    29
 73
    25
 74
     0
 42
0.0000000001
 43
0.0000000001
 40
0.0
 40
0.0
 40
0.0
 40
0.0
 40
1.0
 40
1.0
 40
1.0
 40
2.0
 40
2.0
 40
2.0
 40
3.0
 40
3.0
 40
3.0
 40
4.0
 40
4.0
 40
4.0
 40
5.0
 40
5.0
 40
5.0
 40
6.0
 40
6.0
 40
6.0
 40
7.0
 40
7.0
 40
7.0
 40
8.0
 40
8.0
 40
8.0
 40
8.0
 10
680.9008342159252
 20
237.2635380810457
 30
0.0
 10
680.9008342159252
 20
237.2635380810457
 30
0.0
 10
669.9623043246211
 20
271.4423529377836
 30
0.0
 10
669.9623043246211
 20
271.4423529377836
 30
0.0
 10
669.6257182736682
 20
272.4944857930651
 30
0.0
 10
668.4571411141676
 20
273.3471474881606
 30
0.0
 10
667.352642772965
 20
273.3471474881606
 30
0.0
 10
667.352642772965
 20
273.3471474881606
 30
0.0
 10
424.7531650295004
 20
273.3471474881606
 30
0.0
 10
424.7531650295004
 20
273.3471474881606
 30
0.0
 10
423.64849443341
 20
273.3471474881606
 30
0.0
 10
422.9444887065705
 20
272.4724371674142
 30
0.0
 10
423.1806501578788
 20
271.3934325496206
 30
0.0
 10
423.1806501578788
 20
271.3934325496206
 30
0.0
 10
430.6391145489779
 20
237.3124584692087
 30
0.0
 10
430.6391145489779
 20
237.3124584692087
 30
0.0
 10
430.8752760002862
 20
236.2334538514151
 30
0.0
 10
431.9620320880352
 20
235.3587435306687
 30
0.0
 10
433.0667026841256
 20
235.3587435306687
 30
0.0
 10
433.0667026841256
 20
235.3587435306687
 30
0.0
 10
679.5103927608119
 20
235.3587435306687
 30
0.0
 10
679.5103927608119
 20
235.3587435306687
 30
0.0
 10
680.6148911020143
 20
235.3587435306687
 30
0.0
 10
681.2374202668781
 20
236.2114052257642
 30
0.0
 10
680.9008342159252
 20
237.2635380810457
 30
0.0
  0
SPLINE
  5
74
330
6F
100
AcDbEntity
  8
GT Stripes
370
     0
100
AcDbSpline
210
0.0
220
0.0
230
1.0
 70
    11
 71
     3
 72
    83
 73
    79
 74
     0
 42
0.0000000001
 43
0.0000000001
 40
0.0
 40
0.0
 40
0.0
 40
0.0
 40
1.0
 40
1.0
 40
1.0
 40
2.0
 40
2.0
 40
2.0
 40
3.0
 40
3.0
 40
3.0
 40
4.0
 40
4.0
 40
4.0
 40
5.0
 40
5.0
 40
5.0
 40
6.0
 40
6.0
 40
6.0
 40
7.0
 40
7.0
 40
7.0
 40
8.0
 40
8.0
 40
8.0
 40
9.0
 40
9.0
 40
9.0
 40
10.0
 40
10.0
 40
10.0
 40
11.0
 40
11.0
 40
11.0
 40
12.0
 40
12.0
 40
12.0
 40
13.0
 40
13.0
 40
13.0
 40
14.0
 40
14.0
 40
14.0
 40
15.0
 40
15.0
 40
15.0
 40
16.0
 40
16.0
 40
16.0
 40
17.0
 40
17.0
 40
17.0
 40
18.0
 40
18.0
 40
18.0
 40
19.0
 40
19.0
 40
19.0
 40
20.0
 40
20.0
 40
20.0
 40
21.0
 40
21.0
 40
21.0
 40
22.0
 40
22.0
 40
22.0
 40
23.0
 40
23.0
 40
23.0
 40
24.0
 40
24.0
 40
24.0
 40
25.0
 40
25.0
 40
25.0
 40
26.0
 40
26.0
 40
26.0
 40
26.0
 10
531.5673874857752
 20
252.1529060811803
 30
0.0
 10
531.5673874857752
 20
252.1529060811803
 30
0.0
 10
530.3678044464529
 20
250.5530026823829
 30
0.0
 10
530.3678044464529
 20
250.5530026823829
 30
0.0
 10
530.2020952442949
 20
250.3321719160976
 30
0.0
 10
529.8438050774669
 20
250.1530268326835
 30
0.0
 10
529.5678527470542
 20
250.1530268326835
 30
0.0
 10
529.5678527470542
 20
250.1530268326835
 30
0.0
 10
520.9675107040787
 20
250.1530268326835
 30
0.0
 10
520.9675107040787
 20
250.1530268326835
 30
0.0
 10
520.6915583736659
 20
250.1530268326835
 30
0.0
 10
520.3174207571512
 20
249.9869731207498
 30
0.0
 10
520.1320744977729
 20
249.7823343139269
 30
0.0
 10
520.1320744977729
 20
249.7823343139269
 30
0.0
 10
513.2029493771846
 20
242.1235374882022
 30
0.0
 10
513.2029493771846
 20
242.1235374882022
 30
0.0
 10
513.0179476275821
 20
241.9188986813793
 30
0.0
 10
512.6641360878393
 20
241.8458626089105
 30
0.0
 10
512.4122994417323
 20
241.9588618153717
 30
0.0
 10
511.4497391281579
 20
242.3915660937717
 30
0.0
 10
510.3528200020229
 20
242.8528646835627
 30
0.0
 10
509.6675900579643
 20
242.8528646835627
 30
0.0
 10
507.7579723707261
 20
242.8528646835627
 30
0.0
 10
504.9202453474931
 20
241.8372498645156
 30
0.0
 10
502.8676561032995
 20
241.1530534497844
 30
0.0
 10
498.8417148633455
 20
239.8108433632826
 30
0.0
 10
493.8690607595036
 20
239.1528296915119
 30
0.0
 10
488.667652164533
 20
239.1528296915119
 30
0.0
 10
483.1010632072185
 20
239.1528296915119
 30
0.0
 10
469.0678019999374
 20
240.1195241223959
 30
0.0
 10
469.0678019999374
 20
246.3530840056518
 30
0.0
 10
469.0678019999374
 20
251.5196971132669
 30
0.0
 10
478.6344939640212
 20
265.3529703956984
 30
0.0
 10
498.6677374265684
 20
265.3529703956984
 30
0.0
 10
498.6677374265684
 20
265.3529703956984
 30
0.0
 10
532.287757426965
 20
265.3529703956984
 30
0.0
 10
532.287757426965
 20
265.3529703956984
 30
0.0
 10
532.5637097573776
 20
265.3529703956984
 30
0.0
 10
532.6326117125369
 20
265.1915675657379
 30
0.0
 10
532.44140878697
 20
264.9922686604398
 30
0.0
 10
532.44140878697
 20
264.9922686604398
 30
0.0
 10
528.3338187301523
 20
260.7136294999393
 30
0.0
 10
528.3338187301523
 20
260.7136294999393
 30
0.0
 10
528.1426158045855
 20
260.5145028495292
 30
0.0
 10
527.7639995609854
 20
260.3529277646807
 30
0.0
 10
527.487702720797
 20
260.3529277646807
 30
0.0
 10
527.487702720797
 20
260.3529277646807
 30
0.0
 10
498.6677374265684
 20
260.3529277646807
 30
0.0
 10
498.6677374265684
 20
260.3529277646807
 30
0.0
 10
484.0677576381026
 20
260.3529277646807
 30
0.0
 10
472.8677448269692
 20
252.1529060811803
 30
0.0
 10
472.8677448269692
 20
246.3530840056518
 30
0.0
 10
472.8677448269692
 20
242.1531653289207
 30
0.0
 10
485.7010784851522
 20
241.9530051491831
 30
0.0
 10
488.667652164533
 20
241.9530051491831
 30
0.0
 10
500.9790535123849
 20
241.9530051491831
 30
0.0
 10
507.7280000202319
 20
246.5904512411754
 30
0.0
 10
509.0974263790216
 20
249.6834600082734
 30
0.0
 10
509.2090475463796
 20
249.9356411641562
 30
0.0
 10
509.0436828539974
 20
250.1530268326835
 30
0.0
 10
508.7673860138089
 20
250.1530268326835
 30
0.0
 10
508.7673860138089
 20
250.1530268326835
 30
0.0
 10
491.7678956369227
 20
250.1530268326835
 30
0.0
 10
491.7678956369227
 20
250.1530268326835
 30
0.0
 10
491.4915987967342
 20
250.1530268326835
 30
0.0
 10
491.4020262550272
 20
250.3321719160976
 30
0.0
 10
491.5677354571852
 20
250.5530026823829
 30
0.0
 10
491.5677354571852
 20
250.5530026823829
 30
0.0
 10
492.7676630062832
 20
252.1529060811803
 30
0.0
 10
492.7676630062832
 20
252.1529060811803
 30
0.0
 10
492.9333722084412
 20
252.3737368474657
 30
0.0
 10
493.2916623752692
 20
252.5528819308797
 30
0.0
 10
493.5679592154577
 20
252.5528819308797
 30
0.0
 10
493.5679592154577
 20
252.5528819308797
 30
0.0
 10
531.3675718158133
 20
252.5528819308797
 30
0.0
 10
531.3675718158133
 20
252.5528819308797
 30
0.0
 10
531.6435241462261
 20
252.5528819308797
 30
0.0
 10
531.7330966879331
 20
252.3737368474657
 30
0.0
 10
531.5673874857752
 20
252.1529060811803
 30
0.0
  0
SPLINE
  5
75
330
6F
100
AcDbEntity
  8
GT Stripes
370
     0
100
AcDbSpline
210
0.0
220
0.0
230
1.0
 70
    11
 71
     3
 72
    53
 73
    49
 74
     0
 42
0.0000000001
 43
0.0000000001
 40
0.0
 40
0.0
 40
0.0
 40
0.0
 40
1.0
 40
1.0
 40
1.0
 40
2.0
 40
2.0
 40
2.0
 40
3.0
 40
3.0
 40
3.0
 40
4.0
 40
4.0
 40
4.0
 40
5.0
 40
5.0
 40
5.0
 40
6.0
 40
6.0
 40
6.0
 40
7.0
 40
7.0
 40
7.0
 40
8.0
 40
8.0
 40
8.0
 40
9.0
 40
9.0
 40
9.0
 40
10.0
 40
10.0
 40
10.0
 40
11.0
 40
11.0
 40
11.0
 40
12.0
 40
12.0
 40
12.0
 40
13.0
 40
13.0
 40
13.0
 40
14.0
 40
14.0
 40
14.0
 40
15.0
 40
15.0
 40
15.0
 40
16.0
 40
16.0
 40
16.0
 40
16.0
 10
589.7006560731722
 20
265.0132837567634
 30
0.0
 10
589.7006560731722
 20
265.0132837567634
 30
0.0
 10
585.034615669789
 20
260.6926144036157
 30
0.0
 10
585.034615669789
 20
260.6926144036157
 30
0.0
 10
584.8320439216208
 20
260.5050288306948
 30
0.0
 10
584.4437814042985
 20
260.3529277646807
 30
0.0
 10
584.1678290738859
 20
260.3529277646807
 30
0.0
 10
584.1678290738859
 20
260.3529277646807
 30
0.0
 10
563.3673623406405
 20
260.3529277646807
 30
0.0
 10
563.3673623406405
 20
260.3529277646807
 30
0.0
 10
563.0914100102278
 20
260.3529277646807
 30
0.0
 10
562.712449256852
 20
260.1913526798323
 30
0.0
 10
562.5212463312852
 20
259.9922260294221
 30
0.0
 10
562.5212463312852
 20
259.9922260294221
 30
0.0
 10
544.0138366657392
 20
240.7138034856443
 30
0.0
 10
544.0138366657392
 20
240.7138034856443
 30
0.0
 10
543.8226337401723
 20
240.5146768352341
 30
0.0
 10
543.4436729867965
 20
240.3531017503857
 30
0.0
 10
543.1677206563837
 20
240.3531017503857
 30
0.0
 10
543.1677206563837
 20
240.3531017503857
 30
0.0
 10
536.1676265219814
 20
240.3531017503857
 30
0.0
 10
536.1676265219814
 20
240.3531017503857
 30
0.0
 10
535.8916741915687
 20
240.3531017503857
 30
0.0
 10
535.8227722364094
 20
240.5146768352341
 30
0.0
 10
536.0139751619763
 20
240.7138034856443
 30
0.0
 10
536.0139751619763
 20
240.7138034856443
 30
0.0
 10
554.5213848275223
 20
259.9922260294221
 30
0.0
 10
554.5213848275223
 20
259.9922260294221
 30
0.0
 10
554.7125877530891
 20
260.1913526798323
 30
0.0
 10
554.64368579793
 20
260.3529277646807
 30
0.0
 10
554.3677334675172
 20
260.3529277646807
 30
0.0
 10
554.3677334675172
 20
260.3529277646807
 30
0.0
 10
531.8874370674898
 20
260.3529277646807
 30
0.0
 10
531.8874370674898
 20
260.3529277646807
 30
0.0
 10
531.611484737077
 20
260.3529277646807
 30
0.0
 10
531.5425827819179
 20
260.5145028495292
 30
0.0
 10
531.7337857074847
 20
260.7136294999393
 30
0.0
 10
531.7337857074847
 20
260.7136294999393
 30
0.0
 10
535.8413757643024
 20
264.9922686604398
 30
0.0
 10
535.8413757643024
 20
264.9922686604398
 30
0.0
 10
536.0325786898693
 20
265.1915675657379
 30
0.0
 10
536.411539443245
 20
265.3529703956984
 30
0.0
 10
536.6874917736578
 20
265.3529703956984
 30
0.0
 10
536.6874917736578
 20
265.3529703956984
 30
0.0
 10
589.567675299715
 20
265.3529703956984
 30
0.0
 10
589.567675299715
 20
265.3529703956984
 30
0.0
 10
589.8436276301277
 20
265.3529703956984
 30
0.0
 10
589.9032278213405
 20
265.2008693296844
 30
0.0
 10
589.7006560731722
 20
265.0132837567634
 30
0.0
  0
HATCH
  5
76
330
6F
100
AcDbEntity
  8
GT Stripes
 62
   250
420
  2235935
100
AcDbHatch
 10
0.0
 20
0.0
 30
0.0
210
0.0
220
0.0
230
1.0
  2
SOLID
 70
     1
 71
     0
 91
        3
 92
        1
 93
        1
 72
     4
 94
        3
 73
     0
 74
     1
 95
       29
 96
       25
 40
0.0
 40
0.0
 40
0.0
 40
0.0
 40
1.0
 40
1.0
 40
1.0
 40
2.0
 40
2.0
 40
2.0
 40
3.0
 40
3.0
 40
3.0
 40
4.0
 40
4.0
 40
4.0
 40
5.0
 40
5.0
 40
5.0
 40
6.0
 40
6.0
 40
6.0
 40
7.0
 40
7.0
 40
7.0
 40
8.0
 40
8.0
 40
8.0
 40
8.0
 10
680.9008342159252
 20
237.2635380810457
 10
680.9008342159252
 20
237.2635380810457
 10
669.9623043246211
 20
271.4423529377836
 10
669.9623043246211
 20
271.4423529377836
 10
669.6257182736682
 20
272.4944857930651
 10
668.4571411141676
 20
273.3471474881606
 10
667.352642772965
 20
273.3471474881606
 10
667.352642772965
 20
273.3471474881606
 10
424.7531650295004
 20
273.3471474881606
 10
424.7531650295004
 20
273.3471474881606
 10
423.64849443341
 20
273.3471474881606
 10
422.9444887065705
 20
272.4724371674142
 10
423.1806501578788
 20
271.3934325496206
 10
423.1806501578788
 20
271.3934325496206
 10
430.6391145489779
 20
237.3124584692087
 10
430.6391145489779
 20
237.3124584692087
 10
430.8752760002862
 20
236.2334538514151
 10
431.9620320880352
 20
235.3587435306687
 10
433.0667026841256
 20
235.3587435306687
 10
433.0667026841256
 20
235.3587435306687
 10
679.5103927608119
 20
235.3587435306687
 10
679.5103927608119
 20
235.3587435306687
 10
680.6148911020143
 20
235.3587435306687
 10
681.2374202668781
 20
236.2114052257642
 10
680.9008342159252
 20
237.2635380810457
 97
        0
 92
        1
 93
        1
 72
     4
 94
        3
 73
     0
 74
     1
 95
       83
 96
       79
 40
0.0
 40
0.0
 40
0.0
 40
0.0
 40
1.0
 40
1.0
 40
1.0
 40
2.0
 40
2.0
 40
2.0
 40
3.0
 40
3.0
 40
3.0
 40
4.0
 40
4.0
 40
4.0
 40
5.0
 40
5.0
 40
5.0
 40
6.0
 40
6.0
 40
6.0
 40
7.0
 40
7.0
 40
7.0
 40
8.0
 40
8.0
 40
8.0
 40
9.0
 40
9.0
 40
9.0
 40
10.0
 40
10.0
 40
10.0
 40
11.0
 40
11.0
 40
11.0
 40
12.0
 40
12.0
 40
12.0
 40
13.0
 40
13.0
 40
13.0
 40
14.0
 40
14.0
 40
14.0
 40
15.0
 40
15.0
 40
15.0
 40
16.0
 40
16.0
 40
16.0
 40
17.0
 40
17.0
 40
17.0
 40
18.0
 40
18.0
 40
18.0
 40
19.0
 40
19.0
 40
19.0
 40
20.0
 40
20.0
 40
20.0
 40
21.0
 40
21.0
 40
21.0
 40
22.0
 40
22.0
 40
22.0
 40
23.0
 40
23.0
 40
23.0
 40
24.0
 40
24.0
 40
24.0
 40
25.0
 40
25.0
 40
25.0
 40
26.0
 40
26.0
 40
26.0
 40
26.0
 10
531.5673874857752
 20
252.1529060811803
 10
531.5673874857752
 20
252.1529060811803
 10
530.3678044464529
 20
250.5530026823829
 10
530.3678044464529
 20
250.5530026823829
 10
530.2020952442949
 20
250.3321719160976
 10
529.8438050774669
 20
250.1530268326835
 10
529.5678527470542
 20
250.1530268326835
 10
529.5678527470542
 20
250.1530268326835
 10
520.9675107040787
 20
250.1530268326835
 10
520.9675107040787
 20
250.1530268326835
 10
520.6915583736659
 20
250.1530268326835
 10
520.3174207571512
 20
249.9869731207498
 10
520.1320744977729
 20
249.7823343139269
 10
520.1320744977729
 20
249.7823343139269
 10
513.2029493771846
 20
242.1235374882022
 10
513.2029493771846
 20
242.1235374882022
 10
513.0179476275821
 20
241.9188986813793
 10
512.6641360878393
 20
241.8458626089105
 10
512.4122994417323
 20
241.9588618153717
 10
511.4497391281579
 20
242.3915660937717
 10
510.3528200020229
 20
242.8528646835627
 10
509.6675900579643
 20
242.8528646835627
 10
507.7579723707261
 20
242.8528646835627
 10
504.9202453474931
 20
241.8372498645156
 10
502.8676561032995
 20
241.1530534497844
 10
498.8417148633455
 20
239.8108433632826
 10
493.8690607595036
 20
239.1528296915119
 10
488.667652164533
 20
239.1528296915119
 10
483.1010632072185
 20
239.1528296915119
 10
469.0678019999374
 20
240.1195241223959
 10
469.0678019999374
 20
246.3530840056518
 10
469.0678019999374
 20
251.5196971132669
 10
478.6344939640212
 20
265.3529703956984
 10
498.6677374265684
 20
265.3529703956984
 10
498.6677374265684
 20
265.3529703956984
 10
532.287757426965
 20
265.3529703956984
 10
532.287757426965
 20
265.3529703956984
 10
532.5637097573776
 20
265.3529703956984
 10
532.6326117125369
 20
265.1915675657379
 10
532.44140878697
 20
264.9922686604398
 10
532.44140878697
 20
264.9922686604398
 10
528.3338187301523
 20
260.7136294999393
 10
528.3338187301523
 20
260.7136294999393
 10
528.1426158045855
 20
260.5145028495292
 10
527.7639995609854
 20
260.3529277646807
 10
527.487702720797
 20
260.3529277646807
 10
527.487702720797
 20
260.3529277646807
 10
498.6677374265684
 20
260.3529277646807
 10
498.6677374265684
 20
260.3529277646807
 10
484.0677576381026
 20
260.3529277646807
 10
472.8677448269692
 20
252.1529060811803
 10
472.8677448269692
 20
246.3530840056518
 10
472.8677448269692
 20
242.1531653289207
 10
485.7010784851522
 20
241.9530051491831
 10
488.667652164533
 20
241.9530051491831
 10
500.9790535123849
 20
241.9530051491831
 10
507.7280000202319
 20
246.5904512411754
 10
509.0974263790216
 20
249.6834600082734
 10
509.2090475463796
 20
249.9356411641562
 10
509.0436828539974
 20
250.1530268326835
 10
508.7673860138089
 20
250.1530268326835
 10
508.7673860138089
 20
250.1530268326835
 10
491.7678956369227
 20
250.1530268326835
 10
491.7678956369227
 20
250.1530268326835
 10
491.4915987967342
 20
250.1530268326835
 10
491.4020262550272
 20
250.3321719160976
 10
491.5677354571852
 20
250.5530026823829
 10
491.5677354571852
 20
250.5530026823829
 10
492.7676630062832
 20
252.1529060811803
 10
492.7676630062832
 20
252.1529060811803
 10
492.9333722084412
 20
252.3737368474657
 10
493.2916623752692
 20
252.5528819308797
 10
493.5679592154577
 20
252.5528819308797
 10
493.5679592154577
 20
252.5528819308797
 10
531.3675718158133
 20
252.5528819308797
 10
531.3675718158133
 20
252.5528819308797
 10
531.6435241462261
 20
252.5528819308797
 10
531.7330966879331
 20
252.3737368474657
 10
531.5673874857752
 20
252.1529060811803
 97
        0
 92
        1
 93
        1
 72
     4
 94
        3
 73
     0
 74
     1
 95
       53
 96
       49
 40
0.0
 40
0.0
 40
0.0
 40
0.0
 40
1.0
 40
1.0
 40
1.0
 40
2.0
 40
2.0
 40
2.0
 40
3.0
 40
3.0
 40
3.0
 40
4.0
 40
4.0
 40
4.0
 40
5.0
 40
5.0
 40
5.0
 40
6.0
 40
6.0
 40
6.0
 40
7.0
 40
7.0
 40
7.0
 40
8.0
 40
8.0
 40
8.0
 40
9.0
 40
9.0
 40
9.0
 40
10.0
 40
10.0
 40
10.0
 40
11.0
 40
11.0
 40
11.0
 40
12.0
 40
12.0
 40
12.0
 40
13.0
 40
13.0
 40
13.0
 40
14.0
 40
14.0
 40
14.0
 40
15.0
 40
15.0
 40
15.0
 40
16.0
 40
16.0
 40
16.0
 40
16.0
 10
589.7006560731722
 20
265.0132837567634
 10
589.7006560731722
 20
265.0132837567634
 10
585.034615669789
 20
260.6926144036157
 10
585.034615669789
 20
260.6926144036157
 10
584.8320439216208
 20
260.5050288306948
 10
584.4437814042985
 20
260.3529277646807
 10
584.1678290738859
 20
260.3529277646807
 10
584.1678290738859
 20
260.3529277646807
 10
563.3673623406405
 20
260.3529277646807
 10
563.3673623406405
 20
260.3529277646807
 10
563.0914100102278
 20
260.3529277646807
 10
562.712449256852
 20
260.1913526798323
 10
562.5212463312852
 20
259.9922260294221
 10
562.5212463312852
 20
259.9922260294221
 10
544.0138366657392
 20
240.7138034856443
 10
544.0138366657392
 20
240.7138034856443
 10
543.8226337401723
 20
240.5146768352341
 10
543.4436729867965
 20
240.3531017503857
 10
543.1677206563837
 20
240.3531017503857
 10
543.1677206563837
 20
240.3531017503857
 10
536.1676265219814
 20
240.3531017503857
 10
536.1676265219814
 20
240.3531017503857
 10
535.8916741915687
 20
240.3531017503857
 10
535.8227722364094
 20
240.5146768352341
 10
536.0139751619763
 20
240.7138034856443
 10
536.0139751619763
 20
240.7138034856443
 10
554.5213848275223
 20
259.9922260294221
 10
554.5213848275223
 20
259.9922260294221
 10
554.7125877530891
 20
260.1913526798323
 10
554.64368579793
 20
260.3529277646807
 10
554.3677334675172
 20
260.3529277646807
 10
554.3677334675172
 20
260.3529277646807
 10
531.8874370674898
 20
260.3529277646807
 10
531.8874370674898
 20
260.3529277646807
 10
531.611484737077
 20
260.3529277646807
 10
531.5425827819179
 20
260.5145028495292
 10
531.7337857074847
 20
260.7136294999393
 10
531.7337857074847
 20
260.7136294999393
 10
535.8413757643024
 20
264.9922686604398
 10
535.8413757643024
 20
264.9922686604398
 10
536.0325786898693
 20
265.1915675657379
 10
536.411539443245
 20
265.3529703956984
 10
536.6874917736578
 20
265.3529703956984
 10
536.6874917736578
 20
265.3529703956984
 10
589.567675299715
 20
265.3529703956984
 10
589.567675299715
 20
265.3529703956984
 10
589.8436276301277
 20
265.3529703956984
 10
589.9032278213405
 20
265.2008693296844
 10
589.7006560731722
 20
265.0132837567634
 97
        0
 75
     0
 76
     1
 98
        0
  0
ENDBLK
  5
72
330
6F
100
AcDbEntity
  8
0
100
AcDbBlockEnd
  0
BLOCK
  5
79
330
77
100
AcDbEntity
  8
0
100
AcDbBlockBegin
  2
block 10
 70
     0
 71
     0
 10
0.0
 20
0.0
 30
0.0
  3
block 10
  1

  0
INSERT
  5
7C
330
77
100
AcDbEntity
  8
GT Stripes
100
AcDbBlockReference
  2
block 11
 10
0.0
 20
0.0
 30
0.0
  0
ENDBLK
  5
7A
330
77
100
AcDbEntity
  8
0
100
AcDbBlockEnd
  0
BLOCK
  5
7D
330
7B
100
AcDbEntity
  8
0
100
AcDbBlockBegin
  2
block 11
 70
     0
 71
     0
 10
0.0
 20
0.0
 30
0.0
  3
block 11
  1

  0
SPLINE
  5
7F
330
7B
100
AcDbEntity
  8
GT Stripes
370
     0
100
AcDbSpline
210
0.0
220
0.0
230
1.0
 70
    11
 71
     3
 72
    29
 73
    25
 74
     0
 42
0.0000000001
 43
0.0000000001
 40
0.0
 40
0.0
 40
0.0
 40
0.0
 40
1.0
 40
1.0
 40
1.0
 40
2.0
 40
2.0
 40
2.0
 40
3.0
 40
3.0
 40
3.0
 40
4.0
 40
4.0
 40
4.0
 40
5.0
 40
5.0
 40
5.0
 40
6.0
 40
6.0
 40
6.0
 40
7.0
 40
7.0
 40
7.0
 40
8.0
 40
8.0
 40
8.0
 40
8.0
 10
211.075455219012
 20
250.6696192414899
 30
0.0
 10
211.075455219012
 20
250.6696192414899
 30
0.0
 10
204.5836852587969
 20
250.6696192414899
 30
0.0
 10
204.5836852587969
 20
250.6696192414899
 30
0.0
 10
203.8665881604772
 20
250.6696192414899
 30
0.0
 10
202.9383065695944
 20
250.3294158378912
 30
0.0
 10
202.5102531731677
 20
249.9096306760836
 30
0.0
 10
202.5102531731677
 20
249.9096306760836
 30
0.0
 10
195.5344469779589
 20
243.0695613325385
 30
0.0
 10
195.5344469779589
 20
243.0695613325385
 30
0.0
 10
195.1062213266443
 20
242.6497761707309
 30
0.0
 10
195.3404879741857
 20
242.3095727671322
 30
0.0
 10
196.0575850725054
 20
242.3095727671322
 30
0.0
 10
196.0575850725054
 20
242.3095727671322
 30
0.0
 10
202.5491827778326
 20
242.3095727671322
 30
0.0
 10
202.5491827778326
 20
242.3095727671322
 30
0.0
 10
203.2662798761524
 20
242.3095727671322
 30
0.0
 10
204.194733721923
 20
242.6497761707309
 30
0.0
 10
204.6226148634619
 20
243.0695613325385
 30
0.0
 10
204.6226148634619
 20
243.0695613325385
 30
0.0
 10
211.5985933135585
 20
249.9096306760836
 30
0.0
 10
211.5985933135585
 20
249.9096306760836
 30
0.0
 10
212.0268189648731
 20
250.3294158378912
 30
0.0
 10
211.7925523173317
 20
250.6696192414899
 30
0.0
 10
211.075455219012
 20
250.6696192414899
 30
0.0
  0
SPLINE
  5
80
330
7B
100
AcDbEntity
  8
GT Stripes
370
     0
100
AcDbSpline
210
0.0
220
0.0
230
1.0
 70
    11
 71
     3
 72
    29
 73
    25
 74
     0
 42
0.0000000001
 43
0.0000000001
 40
0.0
 40
0.0
 40
0.0
 40
0.0
 40
1.0
 40
1.0
 40
1.0
 40
2.0
 40
2.0
 40
2.0
 40
3.0
 40
3.0
 40
3.0
 40
4.0
 40
4.0
 40
4.0
 40
5.0
 40
5.0
 40
5.0
 40
6.0
 40
6.0
 40
6.0
 40
7.0
 40
7.0
 40
7.0
 40
8.0
 40
8.0
 40
8.0
 40
8.0
 10
192.9459727775144
 20
250.6696192414899
 30
0.0
 10
192.9459727775144
 20
250.6696192414899
 30
0.0
 10
186.4545473270751
 20
250.6696192414899
 30
0.0
 10
186.4545473270751
 20
250.6696192414899
 30
0.0
 10
185.7372779738675
 20
250.6696192414899
 30
0.0
 10
184.8089963829847
 20
250.3294158378912
 30
0.0
 10
184.380942986558
 20
249.9096306760836
 30
0.0
 10
184.380942986558
 20
249.9096306760836
 30
0.0
 10
177.4049645364614
 20
243.0695613325385
 30
0.0
 10
177.4049645364614
 20
243.0695613325385
 30
0.0
 10
176.9769111400346
 20
242.6497761707309
 30
0.0
 10
177.211177787576
 20
242.3095727671322
 30
0.0
 10
177.9282748858957
 20
242.3095727671322
 30
0.0
 10
177.9282748858957
 20
242.3095727671322
 30
0.0
 10
184.4198725912229
 20
242.3095727671322
 30
0.0
 10
184.4198725912229
 20
242.3095727671322
 30
0.0
 10
185.1369696895427
 20
242.3095727671322
 30
0.0
 10
186.0652512804255
 20
242.6497761707309
 30
0.0
 10
186.4934769317401
 20
243.0695613325385
 30
0.0
 10
186.4934769317401
 20
243.0695613325385
 30
0.0
 10
193.4694553818367
 20
249.9096306760836
 30
0.0
 10
193.4694553818367
 20
249.9096306760836
 30
0.0
 10
193.8973365233755
 20
250.3294158378912
 30
0.0
 10
193.6630698758341
 20
250.6696192414899
 30
0.0
 10
192.9459727775144
 20
250.6696192414899
 30
0.0
  0
INSERT
  5
82
330
7B
100
AcDbEntity
  8
GT Stripes
100
AcDbBlockReference
  2
block 12
 10
0.0
 20
0.0
 30
0.0
  0
SPLINE
  5
8C
330
7B
100
AcDbEntity
  8
GT Stripes
370
     0
100
AcDbSpline
210
0.0
220
0.0
230
1.0
 70
    11
 71
     3
 72
    29
 73
    25
 74
     0
 42
0.0000000001
 43
0.0000000001
 40
0.0
 40
0.0
 40
0.0
 40
0.0
 40
1.0
 40
1.0
 40
1.0
 40
2.0
 40
2.0
 40
2.0
 40
3.0
 40
3.0
 40
3.0
 40
4.0
 40
4.0
 40
4.0
 40
5.0
 40
5.0
 40
5.0
 40
6.0
 40
6.0
 40
6.0
 40
7.0
 40
7.0
 40
7.0
 40
8.0
 40
8.0
 40
8.0
 40
8.0
 10
229.2047654056217
 20
250.6696192414899
 30
0.0
 10
229.2047654056217
 20
250.6696192414899
 30
0.0
 10
222.7129954454066
 20
250.6696192414899
 30
0.0
 10
222.7129954454066
 20
250.6696192414899
 30
0.0
 10
221.9960706019748
 20
250.6696192414899
 30
0.0
 10
221.067789011092
 20
250.3294158378912
 30
0.0
 10
220.6395633597774
 20
249.9096306760836
 30
0.0
 10
220.6395633597774
 20
249.9096306760836
 30
0.0
 10
213.6635849096807
 20
243.0695613325385
 30
0.0
 10
213.6635849096807
 20
243.0695613325385
 30
0.0
 10
213.235531513254
 20
242.6497761707309
 30
0.0
 10
213.4697981607954
 20
242.3095727671322
 30
0.0
 10
214.187067514003
 20
242.3095727671322
 30
0.0
 10
214.187067514003
 20
242.3095727671322
 30
0.0
 10
220.6786652193302
 20
242.3095727671322
 30
0.0
 10
220.6786652193302
 20
242.3095727671322
 30
0.0
 10
221.3957623176499
 20
242.3095727671322
 30
0.0
 10
222.3240439085327
 20
242.6497761707309
 30
0.0
 10
222.7520973049595
 20
243.0695613325385
 30
0.0
 10
222.7520973049595
 20
243.0695613325385
 30
0.0
 10
229.7279035001682
 20
249.9096306760836
 30
0.0
 10
229.7279035001682
 20
249.9096306760836
 30
0.0
 10
230.1559568965949
 20
250.3294158378912
 30
0.0
 10
229.9216902490535
 20
250.6696192414899
 30
0.0
 10
229.2047654056217
 20
250.6696192414899
 30
0.0
  0
HATCH
  5
8D
330
7B
100
AcDbEntity
  8
GT Stripes
 62
   250
420
  2235935
100
AcDbHatch
 10
0.0
 20
0.0
 30
0.0
210
0.0
220
0.0
230
1.0
  2
SOLID
 70
     1
 71
     0
 91
       10
 92
        1
 93
        1
 72
     4
 94
        3
 73
     0
 74
     1
 95
       29
 96
       25
 40
0.0
 40
0.0
 40
0.0
 40
0.0
 40
1.0
 40
1.0
 40
1.0
 40
2.0
 40
2.0
 40
2.0
 40
3.0
 40
3.0
 40
3.0
 40
4.0
 40
4.0
 40
4.0
 40
5.0
 40
5.0
 40
5.0
 40
6.0
 40
6.0
 40
6.0
 40
7.0
 40
7.0
 40
7.0
 40
8.0
 40
8.0
 40
8.0
 40
8.0
 10
211.075455219012
 20
250.6696192414899
 10
211.075455219012
 20
250.6696192414899
 10
204.5836852587969
 20
250.6696192414899
 10
204.5836852587969
 20
250.6696192414899
 10
203.8665881604772
 20
250.6696192414899
 10
202.9383065695944
 20
250.3294158378912
 10
202.5102531731677
 20
249.9096306760836
 10
202.5102531731677
 20
249.9096306760836
 10
195.5344469779589
 20
243.0695613325385
 10
195.5344469779589
 20
243.0695613325385
 10
195.1062213266443
 20
242.6497761707309
 10
195.3404879741857
 20
242.3095727671322
 10
196.0575850725054
 20
242.3095727671322
 10
196.0575850725054
 20
242.3095727671322
 10
202.5491827778326
 20
242.3095727671322
 10
202.5491827778326
 20
242.3095727671322
 10
203.2662798761524
 20
242.3095727671322
 10
204.194733721923
 20
242.6497761707309
 10
204.6226148634619
 20
243.0695613325385
 10
204.6226148634619
 20
243.0695613325385
 10
211.5985933135585
 20
249.9096306760836
 10
211.5985933135585
 20
249.9096306760836
 10
212.0268189648731
 20
250.3294158378912
 10
211.7925523173317
 20
250.6696192414899
 10
211.075455219012
 20
250.6696192414899
 97
        0
 92
        1
 93
        1
 72
     4
 94
        3
 73
     0
 74
     1
 95
       29
 96
       25
 40
0.0
 40
0.0
 40
0.0
 40
0.0
 40
1.0
 40
1.0
 40
1.0
 40
2.0
 40
2.0
 40
2.0
 40
3.0
 40
3.0
 40
3.0
 40
4.0
 40
4.0
 40
4.0
 40
5.0
 40
5.0
 40
5.0
 40
6.0
 40
6.0
 40
6.0
 40
7.0
 40
7.0
 40
7.0
 40
8.0
 40
8.0
 40
8.0
 40
8.0
 10
192.9459727775144
 20
250.6696192414899
 10
192.9459727775144
 20
250.6696192414899
 10
186.4545473270751
 20
250.6696192414899
 10
186.4545473270751
 20
250.6696192414899
 10
185.7372779738675
 20
250.6696192414899
 10
184.8089963829847
 20
250.3294158378912
 10
184.380942986558
 20
249.9096306760836
 10
184.380942986558
 20
249.9096306760836
 10
177.4049645364614
 20
243.0695613325385
 10
177.4049645364614
 20
243.0695613325385
 10
176.9769111400346
 20
242.6497761707309
 10
177.211177787576
 20
242.3095727671322
 10
177.9282748858957
 20
242.3095727671322
 10
177.9282748858957
 20
242.3095727671322
 10
184.4198725912229
 20
242.3095727671322
 10
184.4198725912229
 20
242.3095727671322
 10
185.1369696895427
 20
242.3095727671322
 10
186.0652512804255
 20
242.6497761707309
 10
186.4934769317401
 20
243.0695613325385
 10
186.4934769317401
 20
243.0695613325385
 10
193.4694553818367
 20
249.9096306760836
 10
193.4694553818367
 20
249.9096306760836
 10
193.8973365233755
 20
250.3294158378912
 10
193.6630698758341
 20
250.6696192414899
 10
192.9459727775144
 20
250.6696192414899
 97
        0
 92
        1
 93
        1
 72
     4
 94
        3
 73
     0
 74
     1
 95
       29
 96
       25
 40
0.0
 40
0.0
 40
0.0
 40
0.0
 40
1.0
 40
1.0
 40
1.0
 40
2.0
 40
2.0
 40
2.0
 40
3.0
 40
3.0
 40
3.0
 40
4.0
 40
4.0
 40
4.0
 40
5.0
 40
5.0
 40
5.0
 40
6.0
 40
6.0
 40
6.0
 40
7.0
 40
7.0
 40
7.0
 40
8.0
 40
8.0
 40
8.0
 40
8.0
 10
280.9005243224916
 20
237.2635380810457
 10
280.9005243224916
 20
237.2635380810457
 10
269.9619944311875
 20
271.4423529377836
 10
269.9619944311875
 20
271.4423529377836
 10
269.6254083802346
 20
272.4944857930651
 10
268.4570034756219
 20
273.3471474881606
 10
267.3523328795315
 20
273.3471474881606
 10
267.3523328795315
 20
273.3471474881606
 10
24.75285513606683
 20
273.3471474881606
 10
24.75285513606683
 20
273.3471474881606
 10
23.64818453997642
 20
273.3471474881606
 10
22.94417881313695
 20
272.4724371674142
 10
23.18034026444522
 20
271.3934325496206
 10
23.18034026444522
 20
271.3934325496206
 10
30.63880465554438
 20
237.3124584692087
 10
30.63880465554438
 20
237.3124584692087
 10
30.87513836174055
 20
236.2334538514151
 10
31.96172219460167
 20
235.3587435306687
 10
33.06656504557998
 20
235.3587435306687
 10
33.06656504557998
 20
235.3587435306687
 10
279.5100828673783
 20
235.3587435306687
 10
279.5100828673783
 20
235.3587435306687
 10
280.6145812085808
 20
235.3587435306687
 10
281.2371103734445
 20
236.2114052257642
 10
280.9005243224916
 20
237.2635380810457
 97
        0
 92
        1
 93
        1
 72
     4
 94
        3
 73
     0
 74
     1
 95
       83
 96
       79
 40
0.0
 40
0.0
 40
0.0
 40
0.0
 40
1.0
 40
1.0
 40
1.0
 40
2.0
 40
2.0
 40
2.0
 40
3.0
 40
3.0
 40
3.0
 40
4.0
 40
4.0
 40
4.0
 40
5.0
 40
5.0
 40
5.0
 40
6.0
 40
6.0
 40
6.0
 40
7.0
 40
7.0
 40
7.0
 40
8.0
 40
8.0
 40
8.0
 40
9.0
 40
9.0
 40
9.0
 40
10.0
 40
10.0
 40
10.0
 40
11.0
 40
11.0
 40
11.0
 40
12.0
 40
12.0
 40
12.0
 40
13.0
 40
13.0
 40
13.0
 40
14.0
 40
14.0
 40
14.0
 40
15.0
 40
15.0
 40
15.0
 40
16.0
 40
16.0
 40
16.0
 40
17.0
 40
17.0
 40
17.0
 40
18.0
 40
18.0
 40
18.0
 40
19.0
 40
19.0
 40
19.0
 40
20.0
 40
20.0
 40
20.0
 40
21.0
 40
21.0
 40
21.0
 40
22.0
 40
22.0
 40
22.0
 40
23.0
 40
23.0
 40
23.0
 40
24.0
 40
24.0
 40
24.0
 40
25.0
 40
25.0
 40
25.0
 40
26.0
 40
26.0
 40
26.0
 40
26.0
 10
131.5667330825658
 20
252.1529060811803
 10
131.5667330825658
 20
252.1529060811803
 10
130.3671500432435
 20
250.5530026823829
 10
130.3671500432435
 20
250.5530026823829
 10
130.2016130959735
 20
250.3321719160976
 10
129.8431506742576
 20
250.1530268326835
 10
129.5671983438448
 20
250.1530268326835
 10
129.5671983438448
 20
250.1530268326835
 10
120.9670285557572
 20
250.1530268326835
 10
120.9670285557572
 20
250.1530268326835
 10
120.6909039704565
 20
250.1530268326835
 10
120.3167663539419
 20
249.9869731207498
 10
120.1315923494515
 20
249.7823343139269
 10
120.1315923494515
 20
249.7823343139269
 10
113.2024672288631
 20
242.1235374882022
 10
113.2024672288631
 20
242.1235374882022
 10
113.0172932243727
 20
241.9188986813793
 10
112.66348168463
 20
241.8458626089105
 10
112.411645038523
 20
241.9588618153717
 10
111.4490847249485
 20
242.3915660937717
 10
110.3521655988135
 20
242.8528646835627
 10
109.6671079096428
 20
242.8528646835627
 10
107.7574902224047
 20
242.8528646835627
 10
104.9195909442837
 20
241.8372498645156
 10
102.8671739549781
 20
241.1530534497844
 10
98.84106046013613
 20
239.8108433632826
 10
93.86857861118213
 20
239.1528296915119
 10
88.66699776132367
 20
239.1528296915119
 10
83.10058105889708
 20
239.1528296915119
 10
69.06714759672803
 20
240.1195241223959
 10
69.06714759672803
 20
246.3530840056518
 10
69.06714759672803
 20
251.5196971132669
 10
78.63383956081185
 20
265.3529703956984
 10
98.66708302335907
 20
265.3529703956984
 10
101.9025465827488
 20
265.3529703956984
 10
128.3126659952831
 20
265.3529703956984
 10
132.2872752786435
 20
265.3529703956984
 10
132.5632276090562
 20
265.3529703956984
 10
132.6321295642155
 20
265.1915675657379
 10
132.4407543837607
 20
264.9922686604398
 10
132.4407543837607
 20
264.9922686604398
 10
128.3331643269429
 20
260.7136294999393
 10
128.3331643269429
 20
260.7136294999393
 10
128.1419614013761
 20
260.5145028495292
 10
127.7633451577761
 20
260.3529277646807
 10
127.4870483175876
 20
260.3529277646807
 10
123.9938914459023
 20
260.3529277646807
 10
103.2423451008201
 20
260.3529277646807
 10
98.66708302335907
 20
260.3529277646807
 10
84.06710323489322
 20
260.3529277646807
 10
72.86726267864768
 20
252.1529060811803
 10
72.86726267864768
 20
246.3530840056518
 10
72.86726267864768
 20
242.1531653289207
 10
85.70059633683076
 20
241.9530051491831
 10
88.66699776132367
 20
241.9530051491831
 10
100.9782268542877
 20
241.9530051491831
 10
107.7273456170225
 20
246.5904512411754
 10
109.0967719758123
 20
249.6834600082734
 10
109.2085653980581
 20
249.9356411641562
 10
109.0430284507881
 20
250.1530268326835
 10
108.7667316105995
 20
250.1530268326835
 10
106.0857565353538
 20
250.1530268326835
 10
94.34193504312606
 20
250.1530268326835
 10
91.76706897882549
 20
250.1530268326835
 10
91.49094439352487
 20
250.1530268326835
 10
91.40137185181786
 20
250.3321719160976
 10
91.56708105397583
 20
250.5530026823829
 10
91.56708105397583
 20
250.5530026823829
 10
92.76718085796178
 20
252.1529060811803
 10
92.76718085796178
 20
252.1529060811803
 10
92.93289006011973
 20
252.3737368474657
 10
93.29100797205984
 20
252.5528819308797
 10
93.56730481224838
 20
252.5528819308797
 10
93.56730481224838
 20
252.5528819308797
 10
131.3670896674919
 20
252.5528819308797
 10
131.3670896674919
 20
252.5528819308797
 10
131.6430419979046
 20
252.5528819308797
 10
131.7326145396117
 20
252.3737368474657
 10
131.5667330825658
 20
252.1529060811803
 97
        0
 92
        1
 93
        1
 72
     4
 94
        3
 73
     0
 74
     1
 95
       53
 96
       49
 40
0.0
 40
0.0
 40
0.0
 40
0.0
 40
1.0
 40
1.0
 40
1.0
 40
2.0
 40
2.0
 40
2.0
 40
3.0
 40
3.0
 40
3.0
 40
4.0
 40
4.0
 40
4.0
 40
5.0
 40
5.0
 40
5.0
 40
6.0
 40
6.0
 40
6.0
 40
7.0
 40
7.0
 40
7.0
 40
8.0
 40
8.0
 40
8.0
 40
9.0
 40
9.0
 40
9.0
 40
10.0
 40
10.0
 40
10.0
 40
11.0
 40
11.0
 40
11.0
 40
12.0
 40
12.0
 40
12.0
 40
13.0
 40
13.0
 40
13.0
 40
14.0
 40
14.0
 40
14.0
 40
15.0
 40
15.0
 40
15.0
 40
16.0
 40
16.0
 40
16.0
 40
16.0
 10
143.1670662531744
 20
240.3531017503857
 10
143.1670662531744
 20
240.3531017503857
 10
136.1671443736599
 20
240.3531017503857
 10
136.1671443736599
 20
240.3531017503857
 10
135.8910197883593
 20
240.3531017503857
 10
135.8221178332001
 20
240.5146768352341
 10
136.013320758767
 20
240.7138034856443
 10
136.013320758767
 20
240.7138034856443
 10
154.5209026792008
 20
259.9922260294221
 10
154.5209026792008
 20
259.9922260294221
 10
154.7119333498798
 20
260.1913526798323
 10
154.6432036496085
 20
260.3529277646807
 10
154.3672513191957
 20
260.3529277646807
 10
154.3672513191957
 20
260.3529277646807
 10
131.8869549191683
 20
260.3529277646807
 10
131.8869549191683
 20
260.3529277646807
 10
131.6108303338677
 20
260.3529277646807
 10
131.5419283787085
 20
260.5145028495292
 10
131.7331313042754
 20
260.7136294999393
 10
131.7331313042754
 20
260.7136294999393
 10
135.840893615981
 20
264.9922686604398
 10
135.840893615981
 20
264.9922686604398
 10
136.0320965415478
 20
265.1915675657379
 10
136.4108850400357
 20
265.3529703956984
 10
136.6868373704485
 20
265.3529703956984
 10
136.6868373704485
 20
265.3529703956984
 10
189.5670208965056
 20
265.3529703956984
 10
189.5670208965056
 20
265.3529703956984
 10
189.8431454818062
 20
265.3529703956984
 10
189.902745673019
 20
265.2008693296844
 10
189.7000016699629
 20
265.0132837567634
 10
189.7000016699629
 20
265.0132837567634
 10
185.0341335214675
 20
260.6926144036157
 10
185.0341335214675
 20
260.6926144036157
 10
184.8315617732994
 20
260.5050288306948
 10
184.4432992559771
 20
260.3529277646807
 10
184.1673469255643
 20
260.3529277646807
 10
184.1673469255643
 20
260.3529277646807
 10
163.3667079374312
 20
260.3529277646807
 10
163.3667079374312
 20
260.3529277646807
 10
163.0907556070184
 20
260.3529277646807
 10
162.7117948536427
 20
260.1913526798323
 10
162.5205919280758
 20
259.9922260294221
 10
162.5205919280758
 20
259.9922260294221
 10
144.0133545174177
 20
240.7138034856443
 10
144.0133545174177
 20
240.7138034856443
 10
143.8219793369629
 20
240.5146768352341
 10
143.4430185835871
 20
240.3531017503857
 10
143.1670662531744
 20
240.3531017503857
 97
        0
 92
        1
 93
        1
 72
     4
 94
        3
 73
     0
 74
     1
 95
       56
 96
       52
 40
0.0
 40
0.0
 40
0.0
 40
0.0
 40
1.0
 40
1.0
 40
1.0
 40
2.0
 40
2.0
 40
2.0
 40
3.0
 40
3.0
 40
3.0
 40
4.0
 40
4.0
 40
4.0
 40
5.0
 40
5.0
 40
5.0
 40
6.0
 40
6.0
 40
6.0
 40
7.0
 40
7.0
 40
7.0
 40
8.0
 40
8.0
 40
8.0
 40
9.0
 40
9.0
 40
9.0
 40
10.0
 40
10.0
 40
10.0
 40
11.0
 40
11.0
 40
11.0
 40
12.0
 40
12.0
 40
12.0
 40
13.0
 40
13.0
 40
13.0
 40
14.0
 40
14.0
 40
14.0
 40
15.0
 40
15.0
 40
15.0
 40
16.0
 40
16.0
 40
16.0
 40
17.0
 40
17.0
 40
17.0
 40
17.0
 10
168.7601807324081
 20
240.2189151927131
 10
168.7601807324081
 20
240.2189151927131
 10
150.6306982909105
 20
240.2189151927131
 10
150.6306982909105
 20
240.2189151927131
 10
150.6306982909105
 20
240.2189151927131
 10
152.2888238418174
 20
241.8909933895398
 10
153.1178866172709
 20
242.7271186153971
 10
158.0924355248797
 20
247.7438699705409
 10
173.6961445451277
 20
249.4159481673676
 10
175.3542700960347
 20
251.0881986190822
 10
176.1833328714881
 20
251.9243238449396
 10
178.6705211978486
 20
254.4325272676236
 10
179.4994117184142
 20
255.2686524934809
 10
179.9138569786969
 20
255.6867151064095
 10
179.6311867076562
 20
256.1047777193382
 10
178.9340711763327
 20
256.1047777193382
 10
177.5394956039098
 20
256.1047777193382
 10
174.7501722041761
 20
256.1047777193382
 10
173.3557688866411
 20
256.1047777193382
 10
172.6583088455417
 20
256.1047777193382
 10
171.5465757990475
 20
255.6867151064095
 10
171.1321305387647
 20
255.2686524934809
 10
170.3030677633112
 20
254.4325272676236
 10
167.8160516918387
 20
251.9243238449396
 10
167.8160516918387
 20
251.9243238449396
 10
167.8160516918387
 20
251.9243238449396
 10
162.2377494021471
 20
251.9243238449396
 10
162.2377494021471
 20
251.9243238449396
 10
162.2377494021471
 20
251.9243238449396
 10
163.8957026981662
 20
253.5964020417663
 10
165.5538282490731
 20
255.2686524934809
 10
167.2119537999801
 20
256.9409029451955
 10
170.8301677202794
 20
257.7770281710528
 10
173.6193188651251
 20
257.7770281710528
 10
176.4084700099709
 20
257.7770281710528
 10
177.8028733275059
 20
257.7770281710528
 10
181.9866000447746
 20
257.7770281710528
 10
186.1703267620433
 20
257.7770281710528
 10
186.7358395590127
 20
256.9409029451955
 10
185.0777140081057
 20
255.2686524934809
 10
183.4195884571988
 20
253.5964020417663
 10
182.5905256817453
 20
252.7604490707969
 10
181.7616351611797
 20
251.9243238449396
 10
178.4452118044779
 20
248.5798229415103
 10
162.0122677538885
 20
246.0716195188263
 10
158.6961889069625
 20
242.7271186153971
 10
160.0909367342733
 20
242.7271186153971
 10
171.2473690587685
 20
242.7271186153971
 10
171.2473690587685
 20
242.7271186153971
 10
171.2473690587685
 20
242.7271186153971
 10
168.7601807324081
 20
240.2189151927131
 10
168.7601807324081
 20
240.2189151927131
 97
        0
 92
        1
 93
        1
 72
     4
 94
        3
 73
     0
 74
     1
 95
       29
 96
       25
 40
0.0
 40
0.0
 40
0.0
 40
0.0
 40
1.0
 40
1.0
 40
1.0
 40
2.0
 40
2.0
 40
2.0
 40
3.0
 40
3.0
 40
3.0
 40
4.0
 40
4.0
 40
4.0
 40
5.0
 40
5.0
 40
5.0
 40
6.0
 40
6.0
 40
6.0
 40
7.0
 40
7.0
 40
7.0
 40
8.0
 40
8.0
 40
8.0
 40
8.0
 10
182.7057642017491
 20
240.2189151927131
 10
182.7057642017491
 20
240.2189151927131
 10
172.9437351947889
 20
240.2189151927131
 10
172.9437351947889
 20
240.2189151927131
 10
172.1735835909965
 20
240.2189151927131
 10
171.9203689057863
 20
240.5932250641157
 10
172.3783946527074
 20
241.0548681636825
 10
172.3783946527074
 20
241.0548681636825
 10
181.4979129278077
 20
250.2520733932249
 10
181.4979129278077
 20
250.2520733932249
 10
182.8714734039071
 20
251.6373472017013
 10
185.8582009051719
 20
252.7604490707969
 10
188.1688279714369
 20
252.7604490707969
 10
188.1688279714369
 20
252.7604490707969
 10
197.9308569783971
 20
252.7604490707969
 10
197.9308569783971
 20
252.7604490707969
 10
198.7008363273015
 20
252.7604490707969
 10
198.9540510125117
 20
252.3861391993943
 10
198.4961975204786
 20
251.9243238449396
 10
198.4961975204786
 20
251.9243238449396
 10
189.3765069904903
 20
242.7271186153971
 10
189.3765069904903
 20
242.7271186153971
 10
188.0031187692789
 20
241.3418448069207
 10
185.016391268014
 20
240.2189151927131
 10
182.7057642017491
 20
240.2189151927131
 97
        0
 92
        1
 93
        1
 72
     4
 94
        3
 73
     0
 74
     1
 95
       29
 96
       25
 40
0.0
 40
0.0
 40
0.0
 40
0.0
 40
1.0
 40
1.0
 40
1.0
 40
2.0
 40
2.0
 40
2.0
 40
3.0
 40
3.0
 40
3.0
 40
4.0
 40
4.0
 40
4.0
 40
5.0
 40
5.0
 40
5.0
 40
6.0
 40
6.0
 40
6.0
 40
7.0
 40
7.0
 40
7.0
 40
8.0
 40
8.0
 40
8.0
 40
8.0
 10
200.8349021334709
 20
240.2189151927131
 10
200.8349021334709
 20
240.2189151927131
 10
191.0730453813985
 20
240.2189151927131
 10
191.0730453813985
 20
240.2189151927131
 10
190.3028937776062
 20
240.2189151927131
 10
190.049679092396
 20
240.5932250641157
 10
190.507704839317
 20
241.0548681636825
 10
190.507704839317
 20
241.0548681636825
 10
199.6272231144174
 20
250.2520733932249
 10
199.6272231144174
 20
250.2520733932249
 10
201.0007835905168
 20
251.6373472017013
 10
203.9873388368937
 20
252.7604490707969
 10
206.2981381580466
 20
252.7604490707969
 10
206.2981381580466
 20
252.7604490707969
 10
216.0599949101189
 20
252.7604490707969
 10
216.0599949101189
 20
252.7604490707969
 10
216.8301465139112
 20
252.7604490707969
 10
217.0835334540093
 20
252.3861391993943
 10
216.6256799619762
 20
251.9243238449396
 10
216.6256799619762
 20
251.9243238449396
 10
207.5061616868758
 20
242.7271186153971
 10
207.5061616868758
 20
242.7271186153971
 10
206.1324289558886
 20
241.3418448069207
 10
203.1457014546237
 20
240.2189151927131
 10
200.8349021334709
 20
240.2189151927131
 97
        0
 92
        1
 93
        1
 72
     4
 94
        3
 73
     0
 74
     1
 95
       29
 96
       25
 40
0.0
 40
0.0
 40
0.0
 40
0.0
 40
1.0
 40
1.0
 40
1.0
 40
2.0
 40
2.0
 40
2.0
 40
3.0
 40
3.0
 40
3.0
 40
4.0
 40
4.0
 40
4.0
 40
5.0
 40
5.0
 40
5.0
 40
6.0
 40
6.0
 40
6.0
 40
7.0
 40
7.0
 40
7.0
 40
8.0
 40
8.0
 40
8.0
 40
8.0
 10
234.7549901485859
 20
251.9243238449396
 10
234.7549901485859
 20
251.9243238449396
 10
225.6352996185976
 20
242.7271186153971
 10
225.6352996185976
 20
242.7271186153971
 10
224.2615668876104
 20
241.3418448069207
 10
221.2750116412334
 20
240.2189151927131
 10
218.9643845749685
 20
240.2189151927131
 10
218.9643845749685
 20
240.2189151927131
 10
209.2025278228961
 20
240.2189151927131
 10
209.2025278228961
 20
240.2189151927131
 10
208.4322039642159
 20
240.2189151927131
 10
208.1789892790057
 20
240.5932250641157
 10
208.6370150259267
 20
241.0548681636825
 10
208.6370150259267
 20
241.0548681636825
 10
217.756705555915
 20
250.2520733932249
 10
217.756705555915
 20
250.2520733932249
 10
219.1302660320143
 20
251.6373472017013
 10
222.1168212783913
 20
252.7604490707969
 10
224.4274483446562
 20
252.7604490707969
 10
224.4274483446562
 20
252.7604490707969
 10
234.1893050967286
 20
252.7604490707969
 10
234.1893050967286
 20
252.7604490707969
 10
234.9596289554088
 20
252.7604490707969
 10
235.212843640619
 20
252.3861391993943
 10
234.7549901485859
 20
251.9243238449396
 97
        0
 92
        1
 93
        1
 72
     4
 94
        3
 73
     0
 74
     1
 95
       29
 96
       25
 40
0.0
 40
0.0
 40
0.0
 40
0.0
 40
1.0
 40
1.0
 40
1.0
 40
2.0
 40
2.0
 40
2.0
 40
3.0
 40
3.0
 40
3.0
 40
4.0
 40
4.0
 40
4.0
 40
5.0
 40
5.0
 40
5.0
 40
6.0
 40
6.0
 40
6.0
 40
7.0
 40
7.0
 40
7.0
 40
8.0
 40
8.0
 40
8.0
 40
8.0
 10
229.2047654056217
 20
250.6696192414899
 10
229.2047654056217
 20
250.6696192414899
 10
222.7129954454066
 20
250.6696192414899
 10
222.7129954454066
 20
250.6696192414899
 10
221.9960706019748
 20
250.6696192414899
 10
221.067789011092
 20
250.3294158378912
 10
220.6395633597774
 20
249.9096306760836
 10
220.6395633597774
 20
249.9096306760836
 10
213.6635849096807
 20
243.0695613325385
 10
213.6635849096807
 20
243.0695613325385
 10
213.235531513254
 20
242.6497761707309
 10
213.4697981607954
 20
242.3095727671322
 10
214.187067514003
 20
242.3095727671322
 10
214.187067514003
 20
242.3095727671322
 10
220.6786652193302
 20
242.3095727671322
 10
220.6786652193302
 20
242.3095727671322
 10
221.3957623176499
 20
242.3095727671322
 10
222.3240439085327
 20
242.6497761707309
 10
222.7520973049595
 20
243.0695613325385
 10
222.7520973049595
 20
243.0695613325385
 10
229.7279035001682
 20
249.9096306760836
 10
229.7279035001682
 20
249.9096306760836
 10
230.1559568965949
 20
250.3294158378912
 10
229.9216902490535
 20
250.6696192414899
 10
229.2047654056217
 20
250.6696192414899
 97
        0
 75
     0
 76
     1
 98
        0
  0
ENDBLK
  5
7E
330
7B
100
AcDbEntity
  8
0
100
AcDbBlockEnd
  0
BLOCK
  5
83
330
81
100
AcDbEntity
  8
0
100
AcDbBlockBegin
  2
block 12
 70
     0
 71
     0
 10
0.0
 20
0.0
 30
0.0
  3
block 12
  1

  0
SPLINE
  5
85
330
81
100
AcDbEntity
  8
GT Stripes
370
     0
100
AcDbSpline
210
0.0
220
0.0
230
1.0
 70
    11
 71
     3
 72
    29
 73
    25
 74
     0
 42
0.0000000001
 43
0.0000000001
 40
0.0
 40
0.0
 40
0.0
 40
0.0
 40
1.0
 40
1.0
 40
1.0
 40
2.0
 40
2.0
 40
2.0
 40
3.0
 40
3.0
 40
3.0
 40
4.0
 40
4.0
 40
4.0
 40
5.0
 40
5.0
 40
5.0
 40
6.0
 40
6.0
 40
6.0
 40
7.0
 40
7.0
 40
7.0
 40
8.0
 40
8.0
 40
8.0
 40
8.0
 10
280.9005243224916
 20
237.2635380810457
 30
0.0
 10
280.9005243224916
 20
237.2635380810457
 30
0.0
 10
269.9619944311875
 20
271.4423529377836
 30
0.0
 10
269.9619944311875
 20
271.4423529377836
 30
0.0
 10
269.6254083802346
 20
272.4944857930651
 30
0.0
 10
268.4570034756219
 20
273.3471474881606
 30
0.0
 10
267.3523328795315
 20
273.3471474881606
 30
0.0
 10
267.3523328795315
 20
273.3471474881606
 30
0.0
 10
24.75285513606683
 20
273.3471474881606
 30
0.0
 10
24.75285513606683
 20
273.3471474881606
 30
0.0
 10
23.64818453997642
 20
273.3471474881606
 30
0.0
 10
22.94417881313695
 20
272.4724371674142
 30
0.0
 10
23.18034026444522
 20
271.3934325496206
 30
0.0
 10
23.18034026444522
 20
271.3934325496206
 30
0.0
 10
30.63880465554438
 20
237.3124584692087
 30
0.0
 10
30.63880465554438
 20
237.3124584692087
 30
0.0
 10
30.87513836174055
 20
236.2334538514151
 30
0.0
 10
31.96172219460167
 20
235.3587435306687
 30
0.0
 10
33.06656504557998
 20
235.3587435306687
 30
0.0
 10
33.06656504557998
 20
235.3587435306687
 30
0.0
 10
279.5100828673783
 20
235.3587435306687
 30
0.0
 10
279.5100828673783
 20
235.3587435306687
 30
0.0
 10
280.6145812085808
 20
235.3587435306687
 30
0.0
 10
281.2371103734445
 20
236.2114052257642
 30
0.0
 10
280.9005243224916
 20
237.2635380810457
 30
0.0
  0
SPLINE
  5
86
330
81
100
AcDbEntity
  8
GT Stripes
370
     0
100
AcDbSpline
210
0.0
220
0.0
230
1.0
 70
    11
 71
     3
 72
    83
 73
    79
 74
     0
 42
0.0000000001
 43
0.0000000001
 40
0.0
 40
0.0
 40
0.0
 40
0.0
 40
1.0
 40
1.0
 40
1.0
 40
2.0
 40
2.0
 40
2.0
 40
3.0
 40
3.0
 40
3.0
 40
4.0
 40
4.0
 40
4.0
 40
5.0
 40
5.0
 40
5.0
 40
6.0
 40
6.0
 40
6.0
 40
7.0
 40
7.0
 40
7.0
 40
8.0
 40
8.0
 40
8.0
 40
9.0
 40
9.0
 40
9.0
 40
10.0
 40
10.0
 40
10.0
 40
11.0
 40
11.0
 40
11.0
 40
12.0
 40
12.0
 40
12.0
 40
13.0
 40
13.0
 40
13.0
 40
14.0
 40
14.0
 40
14.0
 40
15.0
 40
15.0
 40
15.0
 40
16.0
 40
16.0
 40
16.0
 40
17.0
 40
17.0
 40
17.0
 40
18.0
 40
18.0
 40
18.0
 40
19.0
 40
19.0
 40
19.0
 40
20.0
 40
20.0
 40
20.0
 40
21.0
 40
21.0
 40
21.0
 40
22.0
 40
22.0
 40
22.0
 40
23.0
 40
23.0
 40
23.0
 40
24.0
 40
24.0
 40
24.0
 40
25.0
 40
25.0
 40
25.0
 40
26.0
 40
26.0
 40
26.0
 40
26.0
 10
131.5667330825658
 20
252.1529060811803
 30
0.0
 10
131.5667330825658
 20
252.1529060811803
 30
0.0
 10
130.3671500432435
 20
250.5530026823829
 30
0.0
 10
130.3671500432435
 20
250.5530026823829
 30
0.0
 10
130.2016130959735
 20
250.3321719160976
 30
0.0
 10
129.8431506742576
 20
250.1530268326835
 30
0.0
 10
129.5671983438448
 20
250.1530268326835
 30
0.0
 10
129.5671983438448
 20
250.1530268326835
 30
0.0
 10
120.9670285557572
 20
250.1530268326835
 30
0.0
 10
120.9670285557572
 20
250.1530268326835
 30
0.0
 10
120.6909039704565
 20
250.1530268326835
 30
0.0
 10
120.3167663539419
 20
249.9869731207498
 30
0.0
 10
120.1315923494515
 20
249.7823343139269
 30
0.0
 10
120.1315923494515
 20
249.7823343139269
 30
0.0
 10
113.2024672288631
 20
242.1235374882022
 30
0.0
 10
113.2024672288631
 20
242.1235374882022
 30
0.0
 10
113.0172932243727
 20
241.9188986813793
 30
0.0
 10
112.66348168463
 20
241.8458626089105
 30
0.0
 10
112.411645038523
 20
241.9588618153717
 30
0.0
 10
111.4490847249485
 20
242.3915660937717
 30
0.0
 10
110.3521655988135
 20
242.8528646835627
 30
0.0
 10
109.6671079096428
 20
242.8528646835627
 30
0.0
 10
107.7574902224047
 20
242.8528646835627
 30
0.0
 10
104.9195909442837
 20
241.8372498645156
 30
0.0
 10
102.8671739549781
 20
241.1530534497844
 30
0.0
 10
98.84106046013613
 20
239.8108433632826
 30
0.0
 10
93.86857861118213
 20
239.1528296915119
 30
0.0
 10
88.66699776132367
 20
239.1528296915119
 30
0.0
 10
83.10058105889708
 20
239.1528296915119
 30
0.0
 10
69.06714759672803
 20
240.1195241223959
 30
0.0
 10
69.06714759672803
 20
246.3530840056518
 30
0.0
 10
69.06714759672803
 20
251.5196971132669
 30
0.0
 10
78.63383956081185
 20
265.3529703956984
 30
0.0
 10
98.66708302335907
 20
265.3529703956984
 30
0.0
 10
101.9025465827488
 20
265.3529703956984
 30
0.0
 10
128.3126659952831
 20
265.3529703956984
 30
0.0
 10
132.2872752786435
 20
265.3529703956984
 30
0.0
 10
132.5632276090562
 20
265.3529703956984
 30
0.0
 10
132.6321295642155
 20
265.1915675657379
 30
0.0
 10
132.4407543837607
 20
264.9922686604398
 30
0.0
 10
132.4407543837607
 20
264.9922686604398
 30
0.0
 10
128.3331643269429
 20
260.7136294999393
 30
0.0
 10
128.3331643269429
 20
260.7136294999393
 30
0.0
 10
128.1419614013761
 20
260.5145028495292
 30
0.0
 10
127.7633451577761
 20
260.3529277646807
 30
0.0
 10
127.4870483175876
 20
260.3529277646807
 30
0.0
 10
123.9938914459023
 20
260.3529277646807
 30
0.0
 10
103.2423451008201
 20
260.3529277646807
 30
0.0
 10
98.66708302335907
 20
260.3529277646807
 30
0.0
 10
84.06710323489322
 20
260.3529277646807
 30
0.0
 10
72.86726267864768
 20
252.1529060811803
 30
0.0
 10
72.86726267864768
 20
246.3530840056518
 30
0.0
 10
72.86726267864768
 20
242.1531653289207
 30
0.0
 10
85.70059633683076
 20
241.9530051491831
 30
0.0
 10
88.66699776132367
 20
241.9530051491831
 30
0.0
 10
100.9782268542877
 20
241.9530051491831
 30
0.0
 10
107.7273456170225
 20
246.5904512411754
 30
0.0
 10
109.0967719758123
 20
249.6834600082734
 30
0.0
 10
109.2085653980581
 20
249.9356411641562
 30
0.0
 10
109.0430284507881
 20
250.1530268326835
 30
0.0
 10
108.7667316105995
 20
250.1530268326835
 30
0.0
 10
106.0857565353538
 20
250.1530268326835
 30
0.0
 10
94.34193504312606
 20
250.1530268326835
 30
0.0
 10
91.76706897882549
 20
250.1530268326835
 30
0.0
 10
91.49094439352487
 20
250.1530268326835
 30
0.0
 10
91.40137185181786
 20
250.3321719160976
 30
0.0
 10
91.56708105397583
 20
250.5530026823829
 30
0.0
 10
91.56708105397583
 20
250.5530026823829
 30
0.0
 10
92.76718085796178
 20
252.1529060811803
 30
0.0
 10
92.76718085796178
 20
252.1529060811803
 30
0.0
 10
92.93289006011973
 20
252.3737368474657
 30
0.0
 10
93.29100797205984
 20
252.5528819308797
 30
0.0
 10
93.56730481224838
 20
252.5528819308797
 30
0.0
 10
93.56730481224838
 20
252.5528819308797
 30
0.0
 10
131.3670896674919
 20
252.5528819308797
 30
0.0
 10
131.3670896674919
 20
252.5528819308797
 30
0.0
 10
131.6430419979046
 20
252.5528819308797
 30
0.0
 10
131.7326145396117
 20
252.3737368474657
 30
0.0
 10
131.5667330825658
 20
252.1529060811803
 30
0.0
  0
SPLINE
  5
87
330
81
100
AcDbEntity
  8
GT Stripes
370
     0
100
AcDbSpline
210
0.0
220
0.0
230
1.0
 70
    11
 71
     3
 72
    53
 73
    49
 74
     0
 42
0.0000000001
 43
0.0000000001
 40
0.0
 40
0.0
 40
0.0
 40
0.0
 40
1.0
 40
1.0
 40
1.0
 40
2.0
 40
2.0
 40
2.0
 40
3.0
 40
3.0
 40
3.0
 40
4.0
 40
4.0
 40
4.0
 40
5.0
 40
5.0
 40
5.0
 40
6.0
 40
6.0
 40
6.0
 40
7.0
 40
7.0
 40
7.0
 40
8.0
 40
8.0
 40
8.0
 40
9.0
 40
9.0
 40
9.0
 40
10.0
 40
10.0
 40
10.0
 40
11.0
 40
11.0
 40
11.0
 40
12.0
 40
12.0
 40
12.0
 40
13.0
 40
13.0
 40
13.0
 40
14.0
 40
14.0
 40
14.0
 40
15.0
 40
15.0
 40
15.0
 40
16.0
 40
16.0
 40
16.0
 40
16.0
 10
143.1670662531744
 20
240.3531017503857
 30
0.0
 10
143.1670662531744
 20
240.3531017503857
 30
0.0
 10
136.1671443736599
 20
240.3531017503857
 30
0.0
 10
136.1671443736599
 20
240.3531017503857
 30
0.0
 10
135.8910197883593
 20
240.3531017503857
 30
0.0
 10
135.8221178332001
 20
240.5146768352341
 30
0.0
 10
136.013320758767
 20
240.7138034856443
 30
0.0
 10
136.013320758767
 20
240.7138034856443
 30
0.0
 10
154.5209026792008
 20
259.9922260294221
 30
0.0
 10
154.5209026792008
 20
259.9922260294221
 30
0.0
 10
154.7119333498798
 20
260.1913526798323
 30
0.0
 10
154.6432036496085
 20
260.3529277646807
 30
0.0
 10
154.3672513191957
 20
260.3529277646807
 30
0.0
 10
154.3672513191957
 20
260.3529277646807
 30
0.0
 10
131.8869549191683
 20
260.3529277646807
 30
0.0
 10
131.8869549191683
 20
260.3529277646807
 30
0.0
 10
131.6108303338677
 20
260.3529277646807
 30
0.0
 10
131.5419283787085
 20
260.5145028495292
 30
0.0
 10
131.7331313042754
 20
260.7136294999393
 30
0.0
 10
131.7331313042754
 20
260.7136294999393
 30
0.0
 10
135.840893615981
 20
264.9922686604398
 30
0.0
 10
135.840893615981
 20
264.9922686604398
 30
0.0
 10
136.0320965415478
 20
265.1915675657379
 30
0.0
 10
136.4108850400357
 20
265.3529703956984
 30
0.0
 10
136.6868373704485
 20
265.3529703956984
 30
0.0
 10
136.6868373704485
 20
265.3529703956984
 30
0.0
 10
189.5670208965056
 20
265.3529703956984
 30
0.0
 10
189.5670208965056
 20
265.3529703956984
 30
0.0
 10
189.8431454818062
 20
265.3529703956984
 30
0.0
 10
189.902745673019
 20
265.2008693296844
 30
0.0
 10
189.7000016699629
 20
265.0132837567634
 30
0.0
 10
189.7000016699629
 20
265.0132837567634
 30
0.0
 10
185.0341335214675
 20
260.6926144036157
 30
0.0
 10
185.0341335214675
 20
260.6926144036157
 30
0.0
 10
184.8315617732994
 20
260.5050288306948
 30
0.0
 10
184.4432992559771
 20
260.3529277646807
 30
0.0
 10
184.1673469255643
 20
260.3529277646807
 30
0.0
 10
184.1673469255643
 20
260.3529277646807
 30
0.0
 10
163.3667079374312
 20
260.3529277646807
 30
0.0
 10
163.3667079374312
 20
260.3529277646807
 30
0.0
 10
163.0907556070184
 20
260.3529277646807
 30
0.0
 10
162.7117948536427
 20
260.1913526798323
 30
0.0
 10
162.5205919280758
 20
259.9922260294221
 30
0.0
 10
162.5205919280758
 20
259.9922260294221
 30
0.0
 10
144.0133545174177
 20
240.7138034856443
 30
0.0
 10
144.0133545174177
 20
240.7138034856443
 30
0.0
 10
143.8219793369629
 20
240.5146768352341
 30
0.0
 10
143.4430185835871
 20
240.3531017503857
 30
0.0
 10
143.1670662531744
 20
240.3531017503857
 30
0.0
  0
SPLINE
  5
88
330
81
100
AcDbEntity
  8
GT Stripes
370
     0
100
AcDbSpline
210
0.0
220
0.0
230
1.0
 70
    11
 71
     3
 72
    56
 73
    52
 74
     0
 42
0.0000000001
 43
0.0000000001
 40
0.0
 40
0.0
 40
0.0
 40
0.0
 40
1.0
 40
1.0
 40
1.0
 40
2.0
 40
2.0
 40
2.0
 40
3.0
 40
3.0
 40
3.0
 40
4.0
 40
4.0
 40
4.0
 40
5.0
 40
5.0
 40
5.0
 40
6.0
 40
6.0
 40
6.0
 40
7.0
 40
7.0
 40
7.0
 40
8.0
 40
8.0
 40
8.0
 40
9.0
 40
9.0
 40
9.0
 40
10.0
 40
10.0
 40
10.0
 40
11.0
 40
11.0
 40
11.0
 40
12.0
 40
12.0
 40
12.0
 40
13.0
 40
13.0
 40
13.0
 40
14.0
 40
14.0
 40
14.0
 40
15.0
 40
15.0
 40
15.0
 40
16.0
 40
16.0
 40
16.0
 40
17.0
 40
17.0
 40
17.0
 40
17.0
 10
168.7601807324081
 20
240.2189151927131
 30
0.0
 10
168.7601807324081
 20
240.2189151927131
 30
0.0
 10
150.6306982909105
 20
240.2189151927131
 30
0.0
 10
150.6306982909105
 20
240.2189151927131
 30
0.0
 10
150.6306982909105
 20
240.2189151927131
 30
0.0
 10
152.2888238418174
 20
241.8909933895398
 30
0.0
 10
153.1178866172709
 20
242.7271186153971
 30
0.0
 10
158.0924355248797
 20
247.7438699705409
 30
0.0
 10
173.6961445451277
 20
249.4159481673676
 30
0.0
 10
175.3542700960347
 20
251.0881986190822
 30
0.0
 10
176.1833328714881
 20
251.9243238449396
 30
0.0
 10
178.6705211978486
 20
254.4325272676236
 30
0.0
 10
179.4994117184142
 20
255.2686524934809
 30
0.0
 10
179.9138569786969
 20
255.6867151064095
 30
0.0
 10
179.6311867076562
 20
256.1047777193382
 30
0.0
 10
178.9340711763327
 20
256.1047777193382
 30
0.0
 10
177.5394956039098
 20
256.1047777193382
 30
0.0
 10
174.7501722041761
 20
256.1047777193382
 30
0.0
 10
173.3557688866411
 20
256.1047777193382
 30
0.0
 10
172.6583088455417
 20
256.1047777193382
 30
0.0
 10
171.5465757990475
 20
255.6867151064095
 30
0.0
 10
171.1321305387647
 20
255.2686524934809
 30
0.0
 10
170.3030677633112
 20
254.4325272676236
 30
0.0
 10
167.8160516918387
 20
251.9243238449396
 30
0.0
 10
167.8160516918387
 20
251.9243238449396
 30
0.0
 10
167.8160516918387
 20
251.9243238449396
 30
0.0
 10
162.2377494021471
 20
251.9243238449396
 30
0.0
 10
162.2377494021471
 20
251.9243238449396
 30
0.0
 10
162.2377494021471
 20
251.9243238449396
 30
0.0
 10
163.8957026981662
 20
253.5964020417663
 30
0.0
 10
165.5538282490731
 20
255.2686524934809
 30
0.0
 10
167.2119537999801
 20
256.9409029451955
 30
0.0
 10
170.8301677202794
 20
257.7770281710528
 30
0.0
 10
173.6193188651251
 20
257.7770281710528
 30
0.0
 10
176.4084700099709
 20
257.7770281710528
 30
0.0
 10
177.8028733275059
 20
257.7770281710528
 30
0.0
 10
181.9866000447746
 20
257.7770281710528
 30
0.0
 10
186.1703267620433
 20
257.7770281710528
 30
0.0
 10
186.7358395590127
 20
256.9409029451955
 30
0.0
 10
185.0777140081057
 20
255.2686524934809
 30
0.0
 10
183.4195884571988
 20
253.5964020417663
 30
0.0
 10
182.5905256817453
 20
252.7604490707969
 30
0.0
 10
181.7616351611797
 20
251.9243238449396
 30
0.0
 10
178.4452118044779
 20
248.5798229415103
 30
0.0
 10
162.0122677538885
 20
246.0716195188263
 30
0.0
 10
158.6961889069625
 20
242.7271186153971
 30
0.0
 10
160.0909367342733
 20
242.7271186153971
 30
0.0
 10
171.2473690587685
 20
242.7271186153971
 30
0.0
 10
171.2473690587685
 20
242.7271186153971
 30
0.0
 10
171.2473690587685
 20
242.7271186153971
 30
0.0
 10
168.7601807324081
 20
240.2189151927131
 30
0.0
 10
168.7601807324081
 20
240.2189151927131
 30
0.0
  0
SPLINE
  5
89
330
81
100
AcDbEntity
  8
GT Stripes
370
     0
100
AcDbSpline
210
0.0
220
0.0
230
1.0
 70
    11
 71
     3
 72
    29
 73
    25
 74
     0
 42
0.0000000001
 43
0.0000000001
 40
0.0
 40
0.0
 40
0.0
 40
0.0
 40
1.0
 40
1.0
 40
1.0
 40
2.0
 40
2.0
 40
2.0
 40
3.0
 40
3.0
 40
3.0
 40
4.0
 40
4.0
 40
4.0
 40
5.0
 40
5.0
 40
5.0
 40
6.0
 40
6.0
 40
6.0
 40
7.0
 40
7.0
 40
7.0
 40
8.0
 40
8.0
 40
8.0
 40
8.0
 10
182.7057642017491
 20
240.2189151927131
 30
0.0
 10
182.7057642017491
 20
240.2189151927131
 30
0.0
 10
172.9437351947889
 20
240.2189151927131
 30
0.0
 10
172.9437351947889
 20
240.2189151927131
 30
0.0
 10
172.1735835909965
 20
240.2189151927131
 30
0.0
 10
171.9203689057863
 20
240.5932250641157
 30
0.0
 10
172.3783946527074
 20
241.0548681636825
 30
0.0
 10
172.3783946527074
 20
241.0548681636825
 30
0.0
 10
181.4979129278077
 20
250.2520733932249
 30
0.0
 10
181.4979129278077
 20
250.2520733932249
 30
0.0
 10
182.8714734039071
 20
251.6373472017013
 30
0.0
 10
185.8582009051719
 20
252.7604490707969
 30
0.0
 10
188.1688279714369
 20
252.7604490707969
 30
0.0
 10
188.1688279714369
 20
252.7604490707969
 30
0.0
 10
197.9308569783971
 20
252.7604490707969
 30
0.0
 10
197.9308569783971
 20
252.7604490707969
 30
0.0
 10
198.7008363273015
 20
252.7604490707969
 30
0.0
 10
198.9540510125117
 20
252.3861391993943
 30
0.0
 10
198.4961975204786
 20
251.9243238449396
 30
0.0
 10
198.4961975204786
 20
251.9243238449396
 30
0.0
 10
189.3765069904903
 20
242.7271186153971
 30
0.0
 10
189.3765069904903
 20
242.7271186153971
 30
0.0
 10
188.0031187692789
 20
241.3418448069207
 30
0.0
 10
185.016391268014
 20
240.2189151927131
 30
0.0
 10
182.7057642017491
 20
240.2189151927131
 30
0.0
  0
SPLINE
  5
8A
330
81
100
AcDbEntity
  8
GT Stripes
370
     0
100
AcDbSpline
210
0.0
220
0.0
230
1.0
 70
    11
 71
     3
 72
    29
 73
    25
 74
     0
 42
0.0000000001
 43
0.0000000001
 40
0.0
 40
0.0
 40
0.0
 40
0.0
 40
1.0
 40
1.0
 40
1.0
 40
2.0
 40
2.0
 40
2.0
 40
3.0
 40
3.0
 40
3.0
 40
4.0
 40
4.0
 40
4.0
 40
5.0
 40
5.0
 40
5.0
 40
6.0
 40
6.0
 40
6.0
 40
7.0
 40
7.0
 40
7.0
 40
8.0
 40
8.0
 40
8.0
 40
8.0
 10
200.8349021334709
 20
240.2189151927131
 30
0.0
 10
200.8349021334709
 20
240.2189151927131
 30
0.0
 10
191.0730453813985
 20
240.2189151927131
 30
0.0
 10
191.0730453813985
 20
240.2189151927131
 30
0.0
 10
190.3028937776062
 20
240.2189151927131
 30
0.0
 10
190.049679092396
 20
240.5932250641157
 30
0.0
 10
190.507704839317
 20
241.0548681636825
 30
0.0
 10
190.507704839317
 20
241.0548681636825
 30
0.0
 10
199.6272231144174
 20
250.2520733932249
 30
0.0
 10
199.6272231144174
 20
250.2520733932249
 30
0.0
 10
201.0007835905168
 20
251.6373472017013
 30
0.0
 10
203.9873388368937
 20
252.7604490707969
 30
0.0
 10
206.2981381580466
 20
252.7604490707969
 30
0.0
 10
206.2981381580466
 20
252.7604490707969
 30
0.0
 10
216.0599949101189
 20
252.7604490707969
 30
0.0
 10
216.0599949101189
 20
252.7604490707969
 30
0.0
 10
216.8301465139112
 20
252.7604490707969
 30
0.0
 10
217.0835334540093
 20
252.3861391993943
 30
0.0
 10
216.6256799619762
 20
251.9243238449396
 30
0.0
 10
216.6256799619762
 20
251.9243238449396
 30
0.0
 10
207.5061616868758
 20
242.7271186153971
 30
0.0
 10
207.5061616868758
 20
242.7271186153971
 30
0.0
 10
206.1324289558886
 20
241.3418448069207
 30
0.0
 10
203.1457014546237
 20
240.2189151927131
 30
0.0
 10
200.8349021334709
 20
240.2189151927131
 30
0.0
  0
SPLINE
  5
8B
330
81
100
AcDbEntity
  8
GT Stripes
370
     0
100
AcDbSpline
210
0.0
220
0.0
230
1.0
 70
    11
 71
     3
 72
    29
 73
    25
 74
     0
 42
0.0000000001
 43
0.0000000001
 40
0.0
 40
0.0
 40
0.0
 40
0.0
 40
1.0
 40
1.0
 40
1.0
 40
2.0
 40
2.0
 40
2.0
 40
3.0
 40
3.0
 40
3.0
 40
4.0
 40
4.0
 40
4.0
 40
5.0
 40
5.0
 40
5.0
 40
6.0
 40
6.0
 40
6.0
 40
7.0
 40
7.0
 40
7.0
 40
8.0
 40
8.0
 40
8.0
 40
8.0
 10
234.7549901485859
 20
251.9243238449396
 30
0.0
 10
234.7549901485859
 20
251.9243238449396
 30
0.0
 10
225.6352996185976
 20
242.7271186153971
 30
0.0
 10
225.6352996185976
 20
242.7271186153971
 30
0.0
 10
224.2615668876104
 20
241.3418448069207
 30
0.0
 10
221.2750116412334
 20
240.2189151927131
 30
0.0
 10
218.9643845749685
 20
240.2189151927131
 30
0.0
 10
218.9643845749685
 20
240.2189151927131
 30
0.0
 10
209.2025278228961
 20
240.2189151927131
 30
0.0
 10
209.2025278228961
 20
240.2189151927131
 30
0.0
 10
208.4322039642159
 20
240.2189151927131
 30
0.0
 10
208.1789892790057
 20
240.5932250641157
 30
0.0
 10
208.6370150259267
 20
241.0548681636825
 30
0.0
 10
208.6370150259267
 20
241.0548681636825
 30
0.0
 10
217.756705555915
 20
250.2520733932249
 30
0.0
 10
217.756705555915
 20
250.2520733932249
 30
0.0
 10
219.1302660320143
 20
251.6373472017013
 30
0.0
 10
222.1168212783913
 20
252.7604490707969
 30
0.0
 10
224.4274483446562
 20
252.7604490707969
 30
0.0
 10
224.4274483446562
 20
252.7604490707969
 30
0.0
 10
234.1893050967286
 20
252.7604490707969
 30
0.0
 10
234.1893050967286
 20
252.7604490707969
 30
0.0
 10
234.9596289554088
 20
252.7604490707969
 30
0.0
 10
235.212843640619
 20
252.3861391993943
 30
0.0
 10
234.7549901485859
 20
251.9243238449396
 30
0.0
  0
ENDBLK
  5
84
330
81
100
AcDbEntity
  8
0
100
AcDbBlockEnd
  0
BLOCK
  5
90
330
8E
100
AcDbEntity
  8
0
100
AcDbBlockBegin
  2
block 13
 70
     0
 71
     0
 10
0.0
 20
0.0
 30
0.0
  3
block 13
  1

  0
SPLINE
  5
92
330
8E
100
AcDbEntity
  8
GT Stripes
370
     0
100
AcDbSpline
210
0.0
220
0.0
230
1.0
 70
    11
 71
     3
 72
    29
 73
    25
 74
     0
 42
0.0000000001
 43
0.0000000001
 40
0.0
 40
0.0
 40
0.0
 40
0.0
 40
1.0
 40
1.0
 40
1.0
 40
2.0
 40
2.0
 40
2.0
 40
3.0
 40
3.0
 40
3.0
 40
4.0
 40
4.0
 40
4.0
 40
5.0
 40
5.0
 40
5.0
 40
6.0
 40
6.0
 40
6.0
 40
7.0
 40
7.0
 40
7.0
 40
8.0
 40
8.0
 40
8.0
 40
8.0
 10
1171.595409646355
 20
72.96682600385276
 30
0.0
 10
1171.595409646355
 20
72.96682600385276
 30
0.0
 10
1173.568761642116
 20
79.14974295006661
 30
0.0
 10
1173.568761642116
 20
79.14974295006661
 30
0.0
 10
1173.904658673517
 20
80.20222031512391
 30
0.0
 10
1173.281440489101
 20
81.05522651999522
 30
0.0
 10
1172.176942147899
 20
81.05522651999522
 30
0.0
 10
1172.176942147899
 20
81.05522651999522
 30
0.0
 10
23.79752952778406
 20
81.05522651999522
 30
0.0
 10
23.79752952778406
 20
81.05522651999522
 30
0.0
 10
22.69303118658154
 20
81.05522651999522
 30
0.0
 10
21.87723203749621
 20
80.16329071045894
 30
0.0
 10
21.97541732359812
 20
79.06292648656597
 30
0.0
 10
21.97541732359812
 20
79.06292648656597
 30
0.0
 10
22.51113002496116
 20
73.0536424673534
 30
0.0
 10
22.51113002496116
 20
73.0536424673534
 30
0.0
 10
22.60931531106307
 20
71.95362275323623
 30
0.0
 10
23.58427797656623
 20
71.06168694369995
 30
0.0
 10
24.68877631776875
 20
71.06168694369995
 30
0.0
 10
24.68877631776875
 20
71.06168694369995
 30
0.0
 10
1168.987470643578
 20
71.06168694369995
 30
0.0
 10
1168.987470643578
 20
71.06168694369995
 30
0.0
 10
1170.091968984781
 20
71.06168694369995
 30
0.0
 10
1171.259857124729
 20
71.91469314857126
 30
0.0
 10
1171.595409646355
 20
72.96682600385276
 30
0.0
  0
HATCH
  5
93
330
8E
100
AcDbEntity
  8
GT Stripes
 62
    20
420
 15418403
100
AcDbHatch
 10
0.0
 20
0.0
 30
0.0
210
0.0
220
0.0
230
1.0
  2
SOLID
 70
     1
 71
     0
 91
        1
 92
        1
 93
        1
 72
     4
 94
        3
 73
     0
 74
     1
 95
       29
 96
       25
 40
0.0
 40
0.0
 40
0.0
 40
0.0
 40
1.0
 40
1.0
 40
1.0
 40
2.0
 40
2.0
 40
2.0
 40
3.0
 40
3.0
 40
3.0
 40
4.0
 40
4.0
 40
4.0
 40
5.0
 40
5.0
 40
5.0
 40
6.0
 40
6.0
 40
6.0
 40
7.0
 40
7.0
 40
7.0
 40
8.0
 40
8.0
 40
8.0
 40
8.0
 10
1171.595409646355
 20
72.96682600385276
 10
1171.595409646355
 20
72.96682600385276
 10
1173.568761642116
 20
79.14974295006661
 10
1173.568761642116
 20
79.14974295006661
 10
1173.904658673517
 20
80.20222031512391
 10
1173.281440489101
 20
81.05522651999522
 10
1172.176942147899
 20
81.05522651999522
 10
1172.176942147899
 20
81.05522651999522
 10
23.79752952778406
 20
81.05522651999522
 10
23.79752952778406
 20
81.05522651999522
 10
22.69303118658154
 20
81.05522651999522
 10
21.87723203749621
 20
80.16329071045894
 10
21.97541732359812
 20
79.06292648656597
 10
21.97541732359812
 20
79.06292648656597
 10
22.51113002496116
 20
73.0536424673534
 10
22.51113002496116
 20
73.0536424673534
 10
22.60931531106307
 20
71.95362275323623
 10
23.58427797656623
 20
71.06168694369995
 10
24.68877631776875
 20
71.06168694369995
 10
24.68877631776875
 20
71.06168694369995
 10
1168.987470643578
 20
71.06168694369995
 10
1168.987470643578
 20
71.06168694369995
 10
1170.091968984781
 20
71.06168694369995
 10
1171.259857124729
 20
71.91469314857126
 10
1171.595409646355
 20
72.96682600385276
 97
        0
 75
     0
 76
     1
 98
        0
  0
SPLINE
  5
94
330
8E
100
AcDbEntity
  8
GT Stripes
370
     0
100
AcDbSpline
210
0.0
220
0.0
230
1.0
 70
    11
 71
     3
 72
    29
 73
    25
 74
     0
 42
0.0000000001
 43
0.0000000001
 40
0.0
 40
0.0
 40
0.0
 40
0.0
 40
1.0
 40
1.0
 40
1.0
 40
2.0
 40
2.0
 40
2.0
 40
3.0
 40
3.0
 40
3.0
 40
4.0
 40
4.0
 40
4.0
 40
5.0
 40
5.0
 40
5.0
 40
6.0
 40
6.0
 40
6.0
 40
7.0
 40
7.0
 40
7.0
 40
8.0
 40
8.0
 40
8.0
 40
8.0
 10
1180.762470270515
 20
151.0551343346914
 30
0.0
 10
1180.762470270515
 20
151.0551343346914
 30
0.0
 10
939.8560858202009
 20
151.0551343346914
 30
0.0
 10
939.8560858202009
 20
151.0551343346914
 30
0.0
 10
938.7512429692225
 20
151.0551343346914
 30
0.0
 10
937.5836993390493
 20
150.2021281298201
 30
0.0
 10
937.247802307648
 20
149.1499952745386
 30
0.0
 10
937.247802307648
 20
149.1499952745386
 30
0.0
 10
935.2744503118876
 20
142.9667338185489
 30
0.0
 10
935.2744503118876
 20
142.9667338185489
 30
0.0
 10
934.9388977902621
 20
141.9146009632674
 30
0.0
 10
935.5617714649017
 20
141.0615947583961
 30
0.0
 10
936.6666143158799
 20
141.0615947583961
 30
0.0
 10
936.6666143158799
 20
141.0615947583961
 30
0.0
 10
1178.573455155106
 20
141.0615947583961
 30
0.0
 10
1178.573455155106
 20
141.0615947583961
 30
0.0
 10
1179.677953496309
 20
141.0615947583961
 30
0.0
 10
1180.764881838946
 20
141.9363050791426
 30
0.0
 10
1181.001215545142
 20
143.0153096969362
 30
0.0
 10
1181.001215545142
 20
143.0153096969362
 30
0.0
 10
1182.334468377473
 20
149.1014193961513
 30
0.0
 10
1182.334468377473
 20
149.1014193961513
 30
0.0
 10
1182.570802083669
 20
150.1804240139449
 30
0.0
 10
1181.866968611718
 20
151.0551343346914
 30
0.0
 10
1180.762470270515
 20
151.0551343346914
 30
0.0
  0
HATCH
  5
95
330
8E
100
AcDbEntity
  8
GT Stripes
 62
    20
420
 15418403
100
AcDbHatch
 10
0.0
 20
0.0
 30
0.0
210
0.0
220
0.0
230
1.0
  2
SOLID
 70
     1
 71
     0
 91
        1
 92
        1
 93
        1
 72
     4
 94
        3
 73
     0
 74
     1
 95
       29
 96
       25
 40
0.0
 40
0.0
 40
0.0
 40
0.0
 40
1.0
 40
1.0
 40
1.0
 40
2.0
 40
2.0
 40
2.0
 40
3.0
 40
3.0
 40
3.0
 40
4.0
 40
4.0
 40
4.0
 40
5.0
 40
5.0
 40
5.0
 40
6.0
 40
6.0
 40
6.0
 40
7.0
 40
7.0
 40
7.0
 40
8.0
 40
8.0
 40
8.0
 40
8.0
 10
1180.762470270515
 20
151.0551343346914
 10
1180.762470270515
 20
151.0551343346914
 10
939.8560858202009
 20
151.0551343346914
 10
939.8560858202009
 20
151.0551343346914
 10
938.7512429692225
 20
151.0551343346914
 10
937.5836993390493
 20
150.2021281298201
 10
937.247802307648
 20
149.1499952745386
 10
937.247802307648
 20
149.1499952745386
 10
935.2744503118876
 20
142.9667338185489
 10
935.2744503118876
 20
142.9667338185489
 10
934.9388977902621
 20
141.9146009632674
 10
935.5617714649017
 20
141.0615947583961
 10
936.6666143158799
 20
141.0615947583961
 10
936.6666143158799
 20
141.0615947583961
 10
1178.573455155106
 20
141.0615947583961
 10
1178.573455155106
 20
141.0615947583961
 10
1179.677953496309
 20
141.0615947583961
 10
1180.764881838946
 20
141.9363050791426
 10
1181.001215545142
 20
143.0153096969362
 10
1181.001215545142
 20
143.0153096969362
 10
1182.334468377473
 20
149.1014193961513
 10
1182.334468377473
 20
149.1014193961513
 10
1182.570802083669
 20
150.1804240139449
 10
1181.866968611718
 20
151.0551343346914
 10
1180.762470270515
 20
151.0551343346914
 97
        0
 75
     0
 76
     1
 98
        0
  0
SPLINE
  5
96
330
8E
100
AcDbEntity
  8
GT Stripes
370
     0
100
AcDbSpline
210
0.0
220
0.0
230
1.0
 70
    11
 71
     3
 72
    29
 73
    25
 74
     0
 42
0.0000000001
 43
0.0000000001
 40
0.0
 40
0.0
 40
0.0
 40
0.0
 40
1.0
 40
1.0
 40
1.0
 40
2.0
 40
2.0
 40
2.0
 40
3.0
 40
3.0
 40
3.0
 40
4.0
 40
4.0
 40
4.0
 40
5.0
 40
5.0
 40
5.0
 40
6.0
 40
6.0
 40
6.0
 40
7.0
 40
7.0
 40
7.0
 40
8.0
 40
8.0
 40
8.0
 40
8.0
 10
780.7621603770816
 20
151.0551343346914
 30
0.0
 10
780.7621603770816
 20
151.0551343346914
 30
0.0
 10
539.8557759267673
 20
151.0551343346914
 30
0.0
 10
539.8557759267673
 20
151.0551343346914
 30
0.0
 10
538.7511053306769
 20
151.0551343346914
 30
0.0
 10
537.5833894456158
 20
150.2021281298201
 30
0.0
 10
537.2478369239902
 20
149.1499952745386
 30
0.0
 10
537.2478369239902
 20
149.1499952745386
 30
0.0
 10
535.2743126733419
 20
142.9667338185489
 30
0.0
 10
535.2743126733419
 20
142.9667338185489
 30
0.0
 10
534.9385878968286
 20
141.9146009632674
 30
0.0
 10
535.5618060812438
 20
141.0615947583961
 30
0.0
 10
536.6663044224464
 20
141.0615947583961
 30
0.0
 10
536.6663044224464
 20
141.0615947583961
 30
0.0
 10
778.5731452616728
 20
141.0615947583961
 30
0.0
 10
778.5731452616728
 20
141.0615947583961
 30
0.0
 10
779.6776436028754
 20
141.0615947583961
 30
0.0
 10
780.7645719455122
 20
141.9363050791426
 30
0.0
 10
781.0009056517084
 20
143.0153096969362
 30
0.0
 10
781.0009056517084
 20
143.0153096969362
 30
0.0
 10
782.3341584840396
 20
149.1014193961513
 30
0.0
 10
782.3341584840396
 20
149.1014193961513
 30
0.0
 10
782.5704921902358
 20
150.1804240139449
 30
0.0
 10
781.8666587182842
 20
151.0551343346914
 30
0.0
 10
780.7621603770816
 20
151.0551343346914
 30
0.0
  0
HATCH
  5
97
330
8E
100
AcDbEntity
  8
GT Stripes
 62
    20
420
 15418403
100
AcDbHatch
 10
0.0
 20
0.0
 30
0.0
210
0.0
220
0.0
230
1.0
  2
SOLID
 70
     1
 71
     0
 91
        1
 92
        1
 93
        1
 72
     4
 94
        3
 73
     0
 74
     1
 95
       29
 96
       25
 40
0.0
 40
0.0
 40
0.0
 40
0.0
 40
1.0
 40
1.0
 40
1.0
 40
2.0
 40
2.0
 40
2.0
 40
3.0
 40
3.0
 40
3.0
 40
4.0
 40
4.0
 40
4.0
 40
5.0
 40
5.0
 40
5.0
 40
6.0
 40
6.0
 40
6.0
 40
7.0
 40
7.0
 40
7.0
 40
8.0
 40
8.0
 40
8.0
 40
8.0
 10
780.7621603770816
 20
151.0551343346914
 10
780.7621603770816
 20
151.0551343346914
 10
539.8557759267673
 20
151.0551343346914
 10
539.8557759267673
 20
151.0551343346914
 10
538.7511053306769
 20
151.0551343346914
 10
537.5833894456158
 20
150.2021281298201
 10
537.2478369239902
 20
149.1499952745386
 10
537.2478369239902
 20
149.1499952745386
 10
535.2743126733419
 20
142.9667338185489
 10
535.2743126733419
 20
142.9667338185489
 10
534.9385878968286
 20
141.9146009632674
 10
535.5618060812438
 20
141.0615947583961
 10
536.6663044224464
 20
141.0615947583961
 10
536.6663044224464
 20
141.0615947583961
 10
778.5731452616728
 20
141.0615947583961
 10
778.5731452616728
 20
141.0615947583961
 10
779.6776436028754
 20
141.0615947583961
 10
780.7645719455122
 20
141.9363050791426
 10
781.0009056517084
 20
143.0153096969362
 10
781.0009056517084
 20
143.0153096969362
 10
782.3341584840396
 20
149.1014193961513
 10
782.3341584840396
 20
149.1014193961513
 10
782.5704921902358
 20
150.1804240139449
 10
781.8666587182842
 20
151.0551343346914
 10
780.7621603770816
 20
151.0551343346914
 97
        0
 75
     0
 76
     1
 98
        0
  0
SPLINE
  5
98
330
8E
100
AcDbEntity
  8
GT Stripes
370
     0
100
AcDbSpline
210
0.0
220
0.0
230
1.0
 70
    11
 71
     3
 72
    29
 73
    25
 74
     0
 42
0.0000000001
 43
0.0000000001
 40
0.0
 40
0.0
 40
0.0
 40
0.0
 40
1.0
 40
1.0
 40
1.0
 40
2.0
 40
2.0
 40
2.0
 40
3.0
 40
3.0
 40
3.0
 40
4.0
 40
4.0
 40
4.0
 40
5.0
 40
5.0
 40
5.0
 40
6.0
 40
6.0
 40
6.0
 40
7.0
 40
7.0
 40
7.0
 40
8.0
 40
8.0
 40
8.0
 40
8.0
 10
32.95597740754941
 20
141.0615947583961
 30
0.0
 10
32.95597740754941
 20
141.0615947583961
 30
0.0
 10
357.6040756095175
 20
141.0615947583961
 30
0.0
 10
357.6040756095175
 20
141.0615947583961
 30
0.0
 10
358.7085739507201
 20
141.0615947583961
 30
0.0
 10
359.5243730998054
 20
141.9535305679324
 30
0.0
 10
359.4265323234793
 20
143.0535502820496
 30
0.0
 10
359.4265323234793
 20
143.0535502820496
 30
0.0
 10
358.8904751123404
 20
149.0631788110379
 30
0.0
 10
358.8904751123404
 20
149.0631788110379
 30
0.0
 10
358.7926343360143
 20
150.1631985251551
 30
0.0
 10
357.8176716705112
 20
151.0551343346914
 30
0.0
 10
356.7131733293086
 20
151.0551343346914
 30
0.0
 10
356.7131733293086
 20
151.0551343346914
 30
0.0
 10
30.97780227492781
 20
151.0551343346914
 30
0.0
 10
30.97780227492781
 20
151.0551343346914
 30
0.0
 10
29.8729594239495
 20
151.0551343346914
 30
0.0
 10
29.15121144365652
 20
150.176978916187
 30
0.0
 10
29.36618554375333
 20
149.0931511615322
 30
0.0
 10
29.36618554375333
 20
149.0931511615322
 30
0.0
 10
30.56714662217878
 20
143.0235779315553
 30
0.0
 10
30.56714662217878
 20
143.0235779315553
 30
0.0
 10
30.78212072227559
 20
141.9400946866763
 30
0.0
 10
31.8511345565711
 20
141.0615947583961
 30
0.0
 10
32.95597740754941
 20
141.0615947583961
 30
0.0
  0
HATCH
  5
99
330
8E
100
AcDbEntity
  8
GT Stripes
 62
    20
420
 15418403
100
AcDbHatch
 10
0.0
 20
0.0
 30
0.0
210
0.0
220
0.0
230
1.0
  2
SOLID
 70
     1
 71
     0
 91
        1
 92
        1
 93
        1
 72
     4
 94
        3
 73
     0
 74
     1
 95
       29
 96
       25
 40
0.0
 40
0.0
 40
0.0
 40
0.0
 40
1.0
 40
1.0
 40
1.0
 40
2.0
 40
2.0
 40
2.0
 40
3.0
 40
3.0
 40
3.0
 40
4.0
 40
4.0
 40
4.0
 40
5.0
 40
5.0
 40
5.0
 40
6.0
 40
6.0
 40
6.0
 40
7.0
 40
7.0
 40
7.0
 40
8.0
 40
8.0
 40
8.0
 40
8.0
 10
32.95597740754941
 20
141.0615947583961
 10
32.95597740754941
 20
141.0615947583961
 10
357.6040756095175
 20
141.0615947583961
 10
357.6040756095175
 20
141.0615947583961
 10
358.7085739507201
 20
141.0615947583961
 10
359.5243730998054
 20
141.9535305679324
 10
359.4265323234793
 20
143.0535502820496
 10
359.4265323234793
 20
143.0535502820496
 10
358.8904751123404
 20
149.0631788110379
 10
358.8904751123404
 20
149.0631788110379
 10
358.7926343360143
 20
150.1631985251551
 10
357.8176716705112
 20
151.0551343346914
 10
356.7131733293086
 20
151.0551343346914
 10
356.7131733293086
 20
151.0551343346914
 10
30.97780227492781
 20
151.0551343346914
 10
30.97780227492781
 20
151.0551343346914
 10
29.8729594239495
 20
151.0551343346914
 10
29.15121144365652
 20
150.176978916187
 10
29.36618554375333
 20
149.0931511615322
 10
29.36618554375333
 20
149.0931511615322
 10
30.56714662217878
 20
143.0235779315553
 10
30.56714662217878
 20
143.0235779315553
 10
30.78212072227559
 20
141.9400946866763
 10
31.8511345565711
 20
141.0615947583961
 10
32.95597740754941
 20
141.0615947583961
 97
        0
 75
     0
 76
     1
 98
        0
  0
SPLINE
  5
9A
330
8E
100
AcDbEntity
  8
GT Stripes
370
     0
100
AcDbSpline
210
0.0
220
0.0
230
1.0
 70
    11
 71
     3
 72
    29
 73
    25
 74
     0
 42
0.0000000001
 43
0.0000000001
 40
0.0
 40
0.0
 40
0.0
 40
0.0
 40
1.0
 40
1.0
 40
1.0
 40
2.0
 40
2.0
 40
2.0
 40
3.0
 40
3.0
 40
3.0
 40
4.0
 40
4.0
 40
4.0
 40
5.0
 40
5.0
 40
5.0
 40
6.0
 40
6.0
 40
6.0
 40
7.0
 40
7.0
 40
7.0
 40
8.0
 40
8.0
 40
8.0
 40
8.0
 10
32.75357791426916
 20
212.966813888133
 30
0.0
 10
32.75357791426916
 20
212.966813888133
 30
0.0
 10
30.78022591850871
 20
219.1499030892347
 30
0.0
 10
30.78022591850871
 20
219.1499030892347
 30
0.0
 10
30.44450114199534
 20
220.2022081994041
 30
0.0
 10
31.06754707152271
 20
221.0552144042754
 30
0.0
 10
32.17221766761313
 20
221.0552144042754
 30
0.0
 10
32.17221766761313
 20
221.0552144042754
 30
0.0
 10
1180.551630287728
 20
221.0552144042754
 30
0.0
 10
1180.551630287728
 20
221.0552144042754
 30
0.0
 10
1181.65612862893
 20
221.0552144042754
 30
0.0
 10
1182.471927778016
 20
220.1632785947392
 30
0.0
 10
1182.373742491914
 20
219.0630866257341
 30
0.0
 10
1182.373742491914
 20
219.0630866257341
 30
0.0
 10
1181.838029790551
 20
213.0536303516336
 30
0.0
 10
1181.838029790551
 20
213.0536303516336
 30
0.0
 10
1181.739844504449
 20
211.9536106375164
 30
0.0
 10
1180.764881838946
 20
211.0616748279802
 30
0.0
 10
1179.660383497743
 20
211.0616748279802
 30
0.0
 10
1179.660383497743
 20
211.0616748279802
 30
0.0
 10
35.36168917193406
 20
211.0616748279802
 30
0.0
 10
35.36168917193406
 20
211.0616748279802
 30
0.0
 10
34.25701857584364
 20
211.0616748279802
 30
0.0
 10
33.08930269078252
 20
211.9146810328515
 30
0.0
 10
32.75357791426916
 20
212.966813888133
 30
0.0
  0
HATCH
  5
9B
330
8E
100
AcDbEntity
  8
GT Stripes
 62
    20
420
 15418403
100
AcDbHatch
 10
0.0
 20
0.0
 30
0.0
210
0.0
220
0.0
230
1.0
  2
SOLID
 70
     1
 71
     0
 91
        1
 92
        1
 93
        1
 72
     4
 94
        3
 73
     0
 74
     1
 95
       29
 96
       25
 40
0.0
 40
0.0
 40
0.0
 40
0.0
 40
1.0
 40
1.0
 40
1.0
 40
2.0
 40
2.0
 40
2.0
 40
3.0
 40
3.0
 40
3.0
 40
4.0
 40
4.0
 40
4.0
 40
5.0
 40
5.0
 40
5.0
 40
6.0
 40
6.0
 40
6.0
 40
7.0
 40
7.0
 40
7.0
 40
8.0
 40
8.0
 40
8.0
 40
8.0
 10
32.75357791426916
 20
212.966813888133
 10
32.75357791426916
 20
212.966813888133
 10
30.78022591850871
 20
219.1499030892347
 10
30.78022591850871
 20
219.1499030892347
 10
30.44450114199534
 20
220.2022081994041
 10
31.06754707152271
 20
221.0552144042754
 10
32.17221766761313
 20
221.0552144042754
 10
32.17221766761313
 20
221.0552144042754
 10
1180.551630287728
 20
221.0552144042754
 10
1180.551630287728
 20
221.0552144042754
 10
1181.65612862893
 20
221.0552144042754
 10
1182.471927778016
 20
220.1632785947392
 10
1182.373742491914
 20
219.0630866257341
 10
1182.373742491914
 20
219.0630866257341
 10
1181.838029790551
 20
213.0536303516336
 10
1181.838029790551
 20
213.0536303516336
 10
1181.739844504449
 20
211.9536106375164
 10
1180.764881838946
 20
211.0616748279802
 10
1179.660383497743
 20
211.0616748279802
 10
1179.660383497743
 20
211.0616748279802
 10
35.36168917193406
 20
211.0616748279802
 10
35.36168917193406
 20
211.0616748279802
 10
34.25701857584364
 20
211.0616748279802
 10
33.08930269078252
 20
211.9146810328515
 10
32.75357791426916
 20
212.966813888133
 97
        0
 75
     0
 76
     1
 98
        0
  0
SPLINE
  5
9C
330
8E
100
AcDbEntity
  8
GT Stripes
370
     0
100
AcDbSpline
210
0.0
220
0.0
230
1.0
 70
    11
 71
     3
 72
    29
 73
    25
 74
     0
 42
0.0000000001
 43
0.0000000001
 40
0.0
 40
0.0
 40
0.0
 40
0.0
 40
1.0
 40
1.0
 40
1.0
 40
2.0
 40
2.0
 40
2.0
 40
3.0
 40
3.0
 40
3.0
 40
4.0
 40
4.0
 40
4.0
 40
5.0
 40
5.0
 40
5.0
 40
6.0
 40
6.0
 40
6.0
 40
7.0
 40
7.0
 40
7.0
 40
8.0
 40
8.0
 40
8.0
 40
8.0
 10
1171.393182407963
 20
281.0617548975642
 30
0.0
 10
1171.393182407963
 20
281.0617548975642
 30
0.0
 10
846.7450842059945
 20
281.0617548975642
 30
0.0
 10
846.7450842059945
 20
281.0617548975642
 30
0.0
 10
845.640585864792
 20
281.0617548975642
 30
0.0
 10
844.8247867157066
 20
281.9536907071005
 30
0.0
 10
844.9226274920328
 20
283.0537104212177
 30
0.0
 10
844.9226274920328
 20
283.0537104212177
 30
0.0
 10
845.4586847031716
 20
289.0631666953182
 30
0.0
 10
845.4586847031716
 20
289.0631666953182
 30
0.0
 10
845.5565254794977
 20
290.1633586643232
 30
0.0
 10
846.5314881450008
 20
291.0552944738595
 30
0.0
 10
847.6359864862034
 20
291.0552944738595
 30
0.0
 10
847.6359864862034
 20
291.0552944738595
 30
0.0
 10
1173.371357540584
 20
291.0552944738595
 30
0.0
 10
1173.371357540584
 20
291.0552944738595
 30
0.0
 10
1174.476200391563
 20
291.0552944738595
 30
0.0
 10
1175.197948371856
 20
290.1769668004671
 30
0.0
 10
1174.982974271759
 20
289.0933113007003
 30
0.0
 10
1174.982974271759
 20
289.0933113007003
 30
0.0
 10
1173.782013193333
 20
283.0237380707234
 30
0.0
 10
1173.782013193333
 20
283.0237380707234
 30
0.0
 10
1173.567039093236
 20
281.9402548258445
 30
0.0
 10
1172.498025258941
 20
281.0617548975642
 30
0.0
 10
1171.393182407963
 20
281.0617548975642
 30
0.0
  0
HATCH
  5
9D
330
8E
100
AcDbEntity
  8
GT Stripes
 62
    20
420
 15418403
100
AcDbHatch
 10
0.0
 20
0.0
 30
0.0
210
0.0
220
0.0
230
1.0
  2
SOLID
 70
     1
 71
     0
 91
        1
 92
        1
 93
        1
 72
     4
 94
        3
 73
     0
 74
     1
 95
       29
 96
       25
 40
0.0
 40
0.0
 40
0.0
 40
0.0
 40
1.0
 40
1.0
 40
1.0
 40
2.0
 40
2.0
 40
2.0
 40
3.0
 40
3.0
 40
3.0
 40
4.0
 40
4.0
 40
4.0
 40
5.0
 40
5.0
 40
5.0
 40
6.0
 40
6.0
 40
6.0
 40
7.0
 40
7.0
 40
7.0
 40
8.0
 40
8.0
 40
8.0
 40
8.0
 10
1171.393182407963
 20
281.0617548975642
 10
1171.393182407963
 20
281.0617548975642
 10
846.7450842059945
 20
281.0617548975642
 10
846.7450842059945
 20
281.0617548975642
 10
845.640585864792
 20
281.0617548975642
 10
844.8247867157066
 20
281.9536907071005
 10
844.9226274920328
 20
283.0537104212177
 10
844.9226274920328
 20
283.0537104212177
 10
845.4586847031716
 20
289.0631666953182
 10
845.4586847031716
 20
289.0631666953182
 10
845.5565254794977
 20
290.1633586643232
 10
846.5314881450008
 20
291.0552944738595
 10
847.6359864862034
 20
291.0552944738595
 10
847.6359864862034
 20
291.0552944738595
 10
1173.371357540584
 20
291.0552944738595
 10
1173.371357540584
 20
291.0552944738595
 10
1174.476200391563
 20
291.0552944738595
 10
1175.197948371856
 20
290.1769668004671
 10
1174.982974271759
 20
289.0933113007003
 10
1174.982974271759
 20
289.0933113007003
 10
1173.782013193333
 20
283.0237380707234
 10
1173.782013193333
 20
283.0237380707234
 10
1173.567039093236
 20
281.9402548258445
 10
1172.498025258941
 20
281.0617548975642
 10
1171.393182407963
 20
281.0617548975642
 97
        0
 75
     0
 76
     1
 98
        0
  0
SPLINE
  5
9E
330
8E
100
AcDbEntity
  8
GT Stripes
370
     0
100
AcDbSpline
210
0.0
220
0.0
230
1.0
 70
    11
 71
     3
 72
    29
 73
    25
 74
     0
 42
0.0000000001
 43
0.0000000001
 40
0.0
 40
0.0
 40
0.0
 40
0.0
 40
1.0
 40
1.0
 40
1.0
 40
2.0
 40
2.0
 40
2.0
 40
3.0
 40
3.0
 40
3.0
 40
4.0
 40
4.0
 40
4.0
 40
5.0
 40
5.0
 40
5.0
 40
6.0
 40
6.0
 40
6.0
 40
7.0
 40
7.0
 40
7.0
 40
8.0
 40
8.0
 40
8.0
 40
8.0
 10
423.5869994384304
 20
291.0552944738595
 30
0.0
 10
423.5869994384304
 20
291.0552944738595
 30
0.0
 10
664.4932116338568
 20
291.0552944738595
 30
0.0
 10
664.4932116338568
 20
291.0552944738595
 30
0.0
 10
665.5977099750594
 20
291.0552944738595
 30
0.0
 10
666.7655981150084
 20
290.2022882689882
 30
0.0
 10
667.1011506366339
 20
289.1499831588188
 30
0.0
 10
667.1011506366339
 20
289.1499831588188
 30
0.0
 10
669.0745026323943
 20
282.966893957717
 30
0.0
 10
669.0745026323943
 20
282.966893957717
 30
0.0
 10
669.4103996637956
 20
281.9147611024355
 30
0.0
 10
668.7871814793803
 20
281.0617548975642
 30
0.0
 10
667.6826831381778
 20
281.0617548975642
 30
0.0
 10
667.6826831381778
 20
281.0617548975642
 30
0.0
 10
425.7760145538392
 20
281.0617548975642
 30
0.0
 10
425.7760145538392
 20
281.0617548975642
 30
0.0
 10
424.6713439577488
 20
281.0617548975642
 30
0.0
 10
423.5844156151119
 20
281.9364652183107
 30
0.0
 10
423.3480819089157
 20
283.0154698361043
 30
0.0
 10
423.3480819089157
 20
283.0154698361043
 30
0.0
 10
422.0148290765845
 20
289.1015795353194
 30
0.0
 10
422.0148290765845
 20
289.1015795353194
 30
0.0
 10
421.7784953703884
 20
290.180584153113
 30
0.0
 10
422.4823288423399
 20
291.0552944738595
 30
0.0
 10
423.5869994384304
 20
291.0552944738595
 30
0.0
  0
HATCH
  5
9F
330
8E
100
AcDbEntity
  8
GT Stripes
 62
    20
420
 15418403
100
AcDbHatch
 10
0.0
 20
0.0
 30
0.0
210
0.0
220
0.0
230
1.0
  2
SOLID
 70
     1
 71
     0
 91
        1
 92
        1
 93
        1
 72
     4
 94
        3
 73
     0
 74
     1
 95
       29
 96
       25
 40
0.0
 40
0.0
 40
0.0
 40
0.0
 40
1.0
 40
1.0
 40
1.0
 40
2.0
 40
2.0
 40
2.0
 40
3.0
 40
3.0
 40
3.0
 40
4.0
 40
4.0
 40
4.0
 40
5.0
 40
5.0
 40
5.0
 40
6.0
 40
6.0
 40
6.0
 40
7.0
 40
7.0
 40
7.0
 40
8.0
 40
8.0
 40
8.0
 40
8.0
 10
423.5869994384304
 20
291.0552944738595
 10
423.5869994384304
 20
291.0552944738595
 10
664.4932116338568
 20
291.0552944738595
 10
664.4932116338568
 20
291.0552944738595
 10
665.5977099750594
 20
291.0552944738595
 10
666.7655981150084
 20
290.2022882689882
 10
667.1011506366339
 20
289.1499831588188
 10
667.1011506366339
 20
289.1499831588188
 10
669.0745026323943
 20
282.966893957717
 10
669.0745026323943
 20
282.966893957717
 10
669.4103996637956
 20
281.9147611024355
 10
668.7871814793803
 20
281.0617548975642
 10
667.6826831381778
 20
281.0617548975642
 10
667.6826831381778
 20
281.0617548975642
 10
425.7760145538392
 20
281.0617548975642
 10
425.7760145538392
 20
281.0617548975642
 10
424.6713439577488
 20
281.0617548975642
 10
423.5844156151119
 20
281.9364652183107
 10
423.3480819089157
 20
283.0154698361043
 10
423.3480819089157
 20
283.0154698361043
 10
422.0148290765845
 20
289.1015795353194
 10
422.0148290765845
 20
289.1015795353194
 10
421.7784953703884
 20
290.180584153113
 10
422.4823288423399
 20
291.0552944738595
 10
423.5869994384304
 20
291.0552944738595
 97
        0
 75
     0
 76
     1
 98
        0
  0
SPLINE
  5
A0
330
8E
100
AcDbEntity
  8
GT Stripes
370
     0
100
AcDbSpline
210
0.0
220
0.0
230
1.0
 70
    11
 71
     3
 72
    29
 73
    25
 74
     0
 42
0.0000000001
 43
0.0000000001
 40
0.0
 40
0.0
 40
0.0
 40
0.0
 40
1.0
 40
1.0
 40
1.0
 40
2.0
 40
2.0
 40
2.0
 40
3.0
 40
3.0
 40
3.0
 40
4.0
 40
4.0
 40
4.0
 40
5.0
 40
5.0
 40
5.0
 40
6.0
 40
6.0
 40
6.0
 40
7.0
 40
7.0
 40
7.0
 40
8.0
 40
8.0
 40
8.0
 40
8.0
 10
23.5866895449968
 20
291.0552944738595
 30
0.0
 10
23.5866895449968
 20
291.0552944738595
 30
0.0
 10
264.4929017404233
 20
291.0552944738595
 30
0.0
 10
264.4929017404233
 20
291.0552944738595
 30
0.0
 10
265.5975723365137
 20
291.0552944738595
 30
0.0
 10
266.7652882215748
 20
290.2022882689882
 30
0.0
 10
267.1010129980882
 20
289.1499831588188
 30
0.0
 10
267.1010129980882
 20
289.1499831588188
 30
0.0
 10
269.0743649938486
 20
282.966893957717
 30
0.0
 10
269.0743649938486
 20
282.966893957717
 30
0.0
 10
269.410089770362
 20
281.9147611024355
 30
0.0
 10
268.7870438408347
 20
281.0617548975642
 30
0.0
 10
267.6823732447442
 20
281.0617548975642
 30
0.0
 10
267.6823732447442
 20
281.0617548975642
 30
0.0
 10
25.77570466040566
 20
281.0617548975642
 30
0.0
 10
25.77570466040566
 20
281.0617548975642
 30
0.0
 10
24.67103406431524
 20
281.0617548975642
 30
0.0
 10
23.58410572167833
 20
281.9364652183107
 30
0.0
 10
23.34777201548216
 20
283.0154698361043
 30
0.0
 10
23.34777201548216
 20
283.0154698361043
 30
0.0
 10
22.01451918315098
 20
289.1015795353194
 30
0.0
 10
22.01451918315098
 20
289.1015795353194
 30
0.0
 10
21.77818547695481
 20
290.180584153113
 30
0.0
 10
22.48201894890639
 20
291.0552944738595
 30
0.0
 10
23.5866895449968
 20
291.0552944738595
 30
0.0
  0
HATCH
  5
A1
330
8E
100
AcDbEntity
  8
GT Stripes
 62
    20
420
 15418403
100
AcDbHatch
 10
0.0
 20
0.0
 30
0.0
210
0.0
220
0.0
230
1.0
  2
SOLID
 70
     1
 71
     0
 91
        1
 92
        1
 93
        1
 72
     4
 94
        3
 73
     0
 74
     1
 95
       29
 96
       25
 40
0.0
 40
0.0
 40
0.0
 40
0.0
 40
1.0
 40
1.0
 40
1.0
 40
2.0
 40
2.0
 40
2.0
 40
3.0
 40
3.0
 40
3.0
 40
4.0
 40
4.0
 40
4.0
 40
5.0
 40
5.0
 40
5.0
 40
6.0
 40
6.0
 40
6.0
 40
7.0
 40
7.0
 40
7.0
 40
8.0
 40
8.0
 40
8.0
 40
8.0
 10
23.5866895449968
 20
291.0552944738595
 10
23.5866895449968
 20
291.0552944738595
 10
264.4929017404233
 20
291.0552944738595
 10
264.4929017404233
 20
291.0552944738595
 10
265.5975723365137
 20
291.0552944738595
 10
266.7652882215748
 20
290.2022882689882
 10
267.1010129980882
 20
289.1499831588188
 10
267.1010129980882
 20
289.1499831588188
 10
269.0743649938486
 20
282.966893957717
 10
269.0743649938486
 20
282.966893957717
 10
269.410089770362
 20
281.9147611024355
 10
268.7870438408347
 20
281.0617548975642
 10
267.6823732447442
 20
281.0617548975642
 10
267.6823732447442
 20
281.0617548975642
 10
25.77570466040566
 20
281.0617548975642
 10
25.77570466040566
 20
281.0617548975642
 10
24.67103406431524
 20
281.0617548975642
 10
23.58410572167833
 20
281.9364652183107
 10
23.34777201548216
 20
283.0154698361043
 10
23.34777201548216
 20
283.0154698361043
 10
22.01451918315098
 20
289.1015795353194
 10
22.01451918315098
 20
289.1015795353194
 10
21.77818547695481
 20
290.180584153113
 10
22.48201894890639
 20
291.0552944738595
 10
23.5866895449968
 20
291.0552944738595
 97
        0
 75
     0
 76
     1
 98
        0
  0
ENDBLK
  5
91
330
8E
100
AcDbEntity
  8
0
100
AcDbBlockEnd
  0
ENDSEC
  0
SECTION
  2
ENTITIES
  0
INSERT
  5
3D
330
1F
100
AcDbEntity
  8
GT Stripes
100
AcDbBlockReference
  2
block 2
 10
0.0
 20
0.0
 30
0.0
  0
INSERT
  5
8F
330
1F
100
AcDbEntity
  8
GT Stripes
100
AcDbBlockReference
  2
block 13
 10
0.0
 20
0.0
 30
0.0
  0
ENDSEC
  0
SECTION
  2
OBJECTS
  0
DICTIONARY
  5
C
330
0
100
AcDbDictionary
281
     1
  3
ACAD_GROUP
350
D
  3
ACAD_LAYOUT
350
1A
  3
ACAD_MLINESTYLE
350
17
  3
ACAD_PLOTSETTINGS
350
19
  3
ACAD_PLOTSTYLENAME
350
E
  3
ACAD_TABLESTYLE
350
A2
  3
ACAD_VISUALSTYLE
350
2A
  0
DICTIONARY
  5
D
102
{ACAD_REACTORS
330
C
102
}
330
C
100
AcDbDictionary
281
     1
  0
DICTIONARY
  5
1A
102
{ACAD_REACTORS
330
C
102
}
330
C
100
AcDbDictionary
281
     1
  3
Layout1
350
1E
  3
Layout2
350
26
  3
Model
350
22
  0
DICTIONARY
  5
17
102
{ACAD_REACTORS
330
C
102
}
330
C
100
AcDbDictionary
281
     1
  3
Standard
350
18
  0
DICTIONARY
  5
19
102
{ACAD_REACTORS
330
C
102
}
330
C
100
AcDbDictionary
281
     1
  0
ACDBDICTIONARYWDFLT
  5
E
102
{ACAD_REACTORS
330
C
102
}
330
C
100
AcDbDictionary
281
     1
  3
Normal
350
F
100
AcDbDictionaryWithDefault
340
F
  0
DICTIONARY
  5
A2
102
{ACAD_REACTORS
330
C
102
}
330
C
100
AcDbDictionary
281
     1
  0
DICTIONARY
  5
2A
102
{ACAD_REACTORS
330
C
102
}
330
C
100
AcDbDictionary
281
     1
  3
2dWireframe
350
2F
  3
3D Hidden
350
31
  3
3dWireframe
350
30
  3
Basic
350
32
  3
Brighten
350
36
  3
ColorChange
350
3A
  3
Conceptual
350
34
  3
Dim
350
35
  3
Facepattern
350
39
  3
Flat
350
2B
  3
FlatWithEdges
350
2C
  3
Gouraud
350
2D
  3
GouraudWithEdges
350
2E
  3
Linepattern
350
38
  3
Realistic
350
33
  3
Thicken
350
37
  0
LAYOUT
  5
1E
102
{ACAD_REACTORS
330
1A
102
}
330
1A
100
AcDbPlotSettings
  1

  2
none_device
  4

  6

 40
0.0
 41
0.0
 42
0.0
 43
0.0
 44
0.0
 45
0.0
 46
0.0
 47
0.0
 48
0.0
 49
0.0
140
0.0
141
0.0
142
1.0
143
1.0
 70
   688
 72
     0
 73
     0
 74
     5
  7

 75
    16
 76
     0
 77
     2
 78
   300
147
1.0
148
0.0
149
0.0
100
AcDbLayout
  1
Layout1
 70
     1
 71
     1
 10
0.0
 20
0.0
 11
12.0
 21
9.0
 12
0.0
 22
0.0
 32
0.0
 14
1.000000000000000E+20
 24
1.000000000000000E+20
 34
1.000000000000000E+20
 15
-1.000000000000000E+20
 25
-1.000000000000000E+20
 35
-1.000000000000000E+20
146
0.0
 13
0.0
 23
0.0
 33
0.0
 16
1.0
 26
0.0
 36
0.0
 17
0.0
 27
1.0
 37
0.0
 76
     0
330
1B
  0
LAYOUT
  5
26
102
{ACAD_REACTORS
330
1A
102
}
330
1A
100
AcDbPlotSettings
  1

  2
none_device
  4

  6

 40
0.0
 41
0.0
 42
0.0
 43
0.0
 44
0.0
 45
0.0
 46
0.0
 47
0.0
 48
0.0
 49
0.0
140
0.0
141
0.0
142
1.0
143
1.0
 70
   688
 72
     0
 73
     0
 74
     5
  7

 75
    16
 76
     0
 77
     2
 78
   300
147
1.0
148
0.0
149
0.0
100
AcDbLayout
  1
Layout2
 70
     1
 71
     2
 10
0.0
 20
0.0
 11
0.0
 21
0.0
 12
0.0
 22
0.0
 32
0.0
 14
0.0
 24
0.0
 34
0.0
 15
0.0
 25
0.0
 35
0.0
146
0.0
 13
0.0
 23
0.0
 33
0.0
 16
1.0
 26
0.0
 36
0.0
 17
0.0
 27
1.0
 37
0.0
 76
     0
330
23
  0
LAYOUT
  5
22
102
{ACAD_REACTORS
330
1A
102
}
330
1A
100
AcDbPlotSettings
  1

  2
none_device
  4

  6

 40
0.0
 41
0.0
 42
0.0
 43
0.0
 44
0.0
 45
0.0
 46
0.0
 47
0.0
 48
0.0
 49
0.0
140
0.0
141
0.0
142
1.0
143
1.0
 70
  1712
 72
     0
 73
     0
 74
     0
  7

 75
     0
 76
     0
 77
     2
 78
   300
147
1.0
148
0.0
149
0.0
100
AcDbLayout
  1
Model
 70
     1
 71
     0
 10
0.0
 20
0.0
 11
12.0
 21
9.0
 12
0.0
 22
0.0
 32
0.0
 14
1.000000000000000E+20
 24
1.000000000000000E+20
 34
1.000000000000000E+20
 15
-1.000000000000000E+20
 25
-1.000000000000000E+20
 35
-1.000000000000000E+20
146
0.0
 13
0.0
 23
0.0
 33
0.0
 16
1.0
 26
0.0
 36
0.0
 17
0.0
 27
1.0
 37
0.0
 76
     0
330
1F
331
29
  0
MLINESTYLE
  5
18
102
{ACAD_REACTORS
330
17
102
}
330
17
100
AcDbMlineStyle
  2
Standard
 70
     0
  3

 62
   256
 51
90.0
 52
90.0
 71
     2
 49
0.5
 62
   256
  6
BYLAYER
 49
-0.5
 62
   256
  6
BYLAYER
  0
ACDBPLACEHOLDER
  5
F
102
{ACAD_REACTORS
330
E
102
}
330
E
  0
VISUALSTYLE
  5
2F
102
{ACAD_REACTORS
330
2A
102
}
330
2A
100
AcDbVisualStyle
  2
2dWireframe
 70
     4
 71
     0
 72
     2
 73
     0
 90
        0
 40
-0.6
 41
-30.0
 62
     5
 63
     7
421
 16777215
 74
     1
 91
        4
 64
     7
 65
   257
 75
     1
175
     1
 42
1.0
 92
        0
 66
   257
 43
1.0
 76
     1
 77
     6
 78
     2
 67
     7
 79
     5
170
     0
171
     0
290
     0
174
     0
 93
        1
 44
0.0
173
     0
291
     0
 45
0.0
1001
ACAD
1000
AcDbSavedByObjectVersion
1070
     0
  0
VISUALSTYLE
  5
31
102
{ACAD_REACTORS
330
2A
102
}
330
2A
100
AcDbVisualStyle
  2
3D Hidden
 70
     6
 71
     1
 72
     2
 73
     2
 90
        0
 40
-0.6
 41
-30.0
 62
     5
 63
     7
421
 16777215
 74
     2
 91
        2
 64
     7
 65
   257
 75
     2
175
     1
 42
40.0
 92
        0
 66
   257
 43
1.0
 76
     1
 77
     6
 78
     2
 67
     7
 79
     3
170
     0
171
     0
290
     0
174
     0
 93
        1
 44
0.0
173
     0
291
     0
 45
0.0
1001
ACAD
1000
AcDbSavedByObjectVersion
1070
     0
  0
VISUALSTYLE
  5
30
102
{ACAD_REACTORS
330
2A
102
}
330
2A
100
AcDbVisualStyle
  2
3dWireframe
 70
     5
 71
     0
 72
     2
 73
     0
 90
        0
 40
-0.6
 41
-30.0
 62
     5
 63
     7
421
 16777215
 74
     1
 91
        4
 64
     7
 65
   257
 75
     1
175
     1
 42
1.0
 92
        0
 66
   257
 43
1.0
 76
     1
 77
     6
 78
     2
 67
     7
 79
     5
170
     0
171
     0
290
     0
174
     0
 93
        1
 44
0.0
173
     0
291
     0
 45
0.0
1001
ACAD
1000
AcDbSavedByObjectVersion
1070
     0
  0
VISUALSTYLE
  5
32
102
{ACAD_REACTORS
330
2A
102
}
330
2A
100
AcDbVisualStyle
  2
Basic
 70
     7
 71
     1
 72
     0
 73
     1
 90
        0
 40
-0.6
 41
-30.0
 62
     5
 63
     7
421
 16777215
 74
     0
 91
        4
 64
     7
 65
   257
 75
     1
175
     1
 42
1.0
 92
        8
 66
     7
 43
1.0
 76
     1
 77
     6
 78
     2
 67
     7
 79
     5
170
     0
171
     0
290
     0
174
     0
 93
        1
 44
0.0
173
     0
291
     1
 45
0.0
1001
ACAD
1000
AcDbSavedByObjectVersion
1070
     0
  0
VISUALSTYLE
  5
36
102
{ACAD_REACTORS
330
2A
102
}
330
2A
100
AcDbVisualStyle
  2
Brighten
 70
    12
 71
     2
 72
     2
 73
     0
 90
        0
 40
-0.6
 41
-30.0
 62
     5
 63
     7
421
 16777215
 74
     1
 91
        4
 64
     7
 65
   257
 75
     1
175
     1
 42
1.0
 92
        8
 66
     7
 43
1.0
 76
     1
 77
     6
 78
     2
 67
     7
 79
     5
170
     0
171
     0
290
     0
174
     0
 93
        1
 44
50.0
173
     0
291
     1
 45
0.0
1001
ACAD
1000
AcDbSavedByObjectVersion
1070
     0
  0
VISUALSTYLE
  5
3A
102
{ACAD_REACTORS
330
2A
102
}
330
2A
100
AcDbVisualStyle
  2
ColorChange
 70
    16
 71
     2
 72
     2
 73
     3
 90
        0
 40
-0.6
 41
-30.0
 62
     5
 63
     8
421
  8421504
 74
     1
 91
        4
 64
     7
 65
   257
 75
     1
175
     1
 42
1.0
 92
        8
 66
     8
424
  8421504
 43
1.0
 76
     1
 77
     6
 78
     2
 67
     7
 79
     5
170
     0
171
     0
290
     0
174
     0
 93
        1
 44
0.0
173
     0
291
     1
 45
0.0
1001
ACAD
1000
AcDbSavedByObjectVersion
1070
     0
  0
VISUALSTYLE
  5
34
102
{ACAD_REACTORS
330
2A
102
}
330
2A
100
AcDbVisualStyle
  2
Conceptual
 70
     9
 71
     3
 72
     2
 73
     0
 90
        0
 40
-0.6
 41
-30.0
 62
     5
 63
     7
421
 16777215
 74
     2
 91
        2
 64
     7
 65
   257
 75
     1
175
     1
 42
40.0
 92
        8
 66
     7
 43
1.0
 76
     1
 77
     6
 78
     2
 67
     7
 79
     3
170
     0
171
     0
290
     0
174
     0
 93
        1
 44
0.0
173
     0
291
     0
 45
0.0
1001
ACAD
1000
AcDbSavedByObjectVersion
1070
     0
  0
VISUALSTYLE
  5
35
102
{ACAD_REACTORS
330
2A
102
}
330
2A
100
AcDbVisualStyle
  2
Dim
 70
    11
 71
     2
 72
     2
 73
     0
 90
        0
 40
-0.6
 41
-30.0
 62
     5
 63
     7
421
 16777215
 74
     1
 91
        4
 64
     7
 65
   257
 75
     1
175
     1
 42
1.0
 92
        8
 66
     7
 43
1.0
 76
     1
 77
     6
 78
     2
 67
     7
 79
     5
170
     0
171
     0
290
     0
174
     0
 93
        1
 44
-50.0
173
     0
291
     1
 45
0.0
1001
ACAD
1000
AcDbSavedByObjectVersion
1070
     0
  0
VISUALSTYLE
  5
39
102
{ACAD_REACTORS
330
2A
102
}
330
2A
100
AcDbVisualStyle
  2
Facepattern
 70
    15
 71
     2
 72
     2
 73
     0
 90
        0
 40
-0.6
 41
-30.0
 62
     5
 63
     7
421
 16777215
 74
     1
 91
        4
 64
     7
 65
   257
 75
     1
175
     1
 42
1.0
 92
        8
 66
     7
 43
1.0
 76
     1
 77
     6
 78
     2
 67
     7
 79
     5
170
     0
171
     0
290
     0
174
     0
 93
        1
 44
0.0
173
     0
291
     1
 45
0.0
1001
ACAD
1000
AcDbSavedByObjectVersion
1070
     0
  0
VISUALSTYLE
  5
2B
102
{ACAD_REACTORS
330
2A
102
}
330
2A
100
AcDbVisualStyle
  2
Flat
 70
     0
 71
     2
 72
     1
 73
     1
 90
        2
 40
-0.6
 41
30.0
 62
     5
 63
     7
421
 16777215
 74
     0
 91
        4
 64
     7
 65
   257
 75
     1
175
     1
 42
1.0
 92
        8
 66
     7
 43
1.0
 76
     1
 77
     6
 78
     2
 67
     7
 79
     5
170
     0
171
     0
290
     0
174
     0
 93
       13
 44
0.0
173
     0
291
     1
 45
0.0
1001
ACAD
1000
AcDbSavedByObjectVersion
1070
     0
  0
VISUALSTYLE
  5
2C
102
{ACAD_REACTORS
330
2A
102
}
330
2A
100
AcDbVisualStyle
  2
FlatWithEdges
 70
     1
 71
     2
 72
     1
 73
     1
 90
        2
 40
-0.6
 41
30.0
 62
     5
 63
     7
421
 16777215
 74
     1
 91
        4
 64
     7
 65
   257
 75
     1
175
     1
 42
1.0
 92
        0
 66
   257
 43
1.0
 76
     1
 77
     6
 78
     2
 67
     7
 79
     5
170
     0
171
     0
290
     0
174
     0
 93
       13
 44
0.0
173
     0
291
     1
 45
0.0
1001
ACAD
1000
AcDbSavedByObjectVersion
1070
     0
  0
VISUALSTYLE
  5
2D
102
{ACAD_REACTORS
330
2A
102
}
330
2A
100
AcDbVisualStyle
  2
Gouraud
 70
     2
 71
     2
 72
     2
 73
     1
 90
        2
 40
-0.6
 41
30.0
 62
     5
 63
     7
421
 16777215
 74
     0
 91
        4
 64
     7
 65
   257
 75
     1
175
     1
 42
1.0
 92
        0
 66
     7
 43
1.0
 76
     1
 77
     6
 78
     2
 67
     7
 79
     5
170
     0
171
     0
290
     0
174
     0
 93
       13
 44
0.0
173
     0
291
     1
 45
0.0
1001
ACAD
1000
AcDbSavedByObjectVersion
1070
     0
  0
VISUALSTYLE
  5
2E
102
{ACAD_REACTORS
330
2A
102
}
330
2A
100
AcDbVisualStyle
  2
GouraudWithEdges
 70
     3
 71
     2
 72
     2
 73
     1
 90
        2
 40
-0.6
 41
30.0
 62
     5
 63
     7
421
 16777215
 74
     1
 91
        4
 64
     7
 65
   257
 75
     1
175
     1
 42
1.0
 92
        0
 66
   257
 43
1.0
 76
     1
 77
     6
 78
     2
 67
     7
 79
     5
170
     0
171
     0
290
     0
174
     0
 93
       13
 44
0.0
173
     0
291
     1
 45
0.0
1001
ACAD
1000
AcDbSavedByObjectVersion
1070
     0
  0
VISUALSTYLE
  5
38
102
{ACAD_REACTORS
330
2A
102
}
330
2A
100
AcDbVisualStyle
  2
Linepattern
 70
    14
 71
     2
 72
     2
 73
     0
 90
        0
 40
-0.6
 41
-30.0
 62
     5
 63
     7
421
 16777215
 74
     1
 91
        4
 64
     7
 65
   257
 75
     7
175
     7
 42
1.0
 92
        8
 66
     7
 43
1.0
 76
     1
 77
     6
 78
     2
 67
     7
 79
     5
170
     0
171
     0
290
     0
174
     0
 93
        1
 44
0.0
173
     0
291
     1
 45
0.0
1001
ACAD
1000
AcDbSavedByObjectVersion
1070
     0
  0
VISUALSTYLE
  5
33
102
{ACAD_REACTORS
330
2A
102
}
330
2A
100
AcDbVisualStyle
  2
Realistic
 70
     8
 71
     2
 72
     2
 73
     0
 90
        0
 40
-0.6
 41
-30.0
 62
     5
 63
     7
421
 16777215
 74
     1
 91
        0
 64
     7
 65
   257
 75
     1
175
     1
 42
1.0
 92
        8
 66
     8
424
  7895160
 43
1.0
 76
     1
 77
     6
 78
     2
 67
     7
 79
     5
170
     0
171
     0
290
     0
174
     0
 93
       13
 44
0.0
173
     0
291
     0
 45
0.0
1001
ACAD
1000
AcDbSavedByObjectVersion
1070
     0
  0
VISUALSTYLE
  5
37
102
{ACAD_REACTORS
330
2A
102
}
330
2A
100
AcDbVisualStyle
  2
Thicken
 70
    13
 71
     2
 72
     2
 73
     0
 90
        0
 40
-0.6
 41
-30.0
 62
     5
 63
     7
421
 16777215
 74
     1
 91
        4
 64
     7
 65
   257
 75
     1
175
     1
 42
1.0
 92
       12
 66
     7
 43
1.0
 76
     1
 77
     6
 78
     2
 67
     7
 79
     5
170
     0
171
     0
290
     0
174
     0
 93
        1
 44
0.0
173
     0
291
     1
 45
0.0
1001
ACAD
1000
AcDbSavedByObjectVersion
1070
     0
  0
ENDSEC
  0
EOF
